Song name
# A B C D E F G H I J K L M N O P Q R S T U V W X Y Z

Joshua Radin - One Leap tab

Artist: Joshua Radin
Song: One Leap (New)
Album: The Rock And The Tide (2010)
tabbed by: necriononguitar
e-mail (No freakin SPAM!): tim.rathgen@gmx.de

REAL FANS SUPPORT BANDS BY PURCHASING THEIR CDS!!!

. = Palm-Muted
~ = hold note
^ = vibrate
p = pull off
h = hammer on
/ = slide up
\ = slide down
* = harmonic


Tuning: Standard

Capo 1 (chords are realtive to the capo :D)


This is a very beautiful acoustic song. It can be played with a pic or
without, u decide. Just play quiet and focus on the riffs!

"""Intro"""
    C                    C                       C
E----------------------------------------------------------------------------|
B----------------------------------------------------------------------------|
G------(0~)----------------(0)-0~--------0~------0~--(0)-0~-----0~-----0~----|
D----------0h2-2h3-2~-------------0h2-2--2h3p2-----------0h2~---2h3~---2~----|
A---3~-------------------3~----------------------3~--------------------------|
E----------------------------------------------------------------------------|


"""Verse"""    0:07         [] <- play this only at the first time!
Finger picking is recommended!

   [   ]Am       G        F              C     C (C/B)
E-------------------------------------------------------------|
B----------1~-------0~-------------1~-------------------------|
G---0h2----2~-------0~---------(0h)2~---(0~)--------0h2~------|
D---0h2-------------------3~----------------------------------|  x2
A-------0~-------------------------------3~----2h3~-----------|
E----------------3~-------------------------------------------|

    Am       G        F              C
E-----------------------------------------------------|
-------1~-------0~-------------1~---------(1)-1~------|
G------2~-------0~---------(0h)2~---(0~)------0~------|
D---------------------3~------------------------------|
A---0~-------------------------------3~---------------|
E------------3~---------------------------------------|

    Am        G            F              F
E-------------------------------------------------------------|
B--------1~---------0~----------------1~--------1~---1~-------|
G------2~---------0~--------------2~------------2~---0h2~-----|
D--------------------------3~-------------3~------------------|
A---0~--------------------------------------------------------|
E-------------3~----------------------------------------------|


I know there might be some differences throughout the song but this is
basically the verse. feel free to improvise :D

"""Chorus"""    0:42      Strumm with ur nails after hitting the base with ur thumb
Legend for the picking on the bottom!

          C               F                    G        C/B or G
E---------------------------------------------------------------------|
B-------------1~---1-1--------1~---(1)-1-1--------0-0-------0-0-------|
G--(0h2)------0~---0----------2~-------2---------(0)0------(0)0-------|
D------------(2~)---------3~------------------------------------------|
A---------3~--------------------------------------------0h2~----------|
E----------------------------------------------3~---------------------|
    f     t   d    d u    t   d    (u) d u     t  u  d  t   u d

    C         C/B or G
E-----------------------------------|
B-----(1)1~---------1~--------------|
G-----(0)0~---------0~--0h2---------|
D-------------0~--------------------|
A---3~--------0h2~------------------|
E-----------------------------------|
    t  u d    d     u   f

     Am              F                    G        C/B or G
E----------------------------------------------------------------|
B--------1~---1-1--------1~---(1)-1-1--------0-0-------0-0-------|
G--------2~---2----------2~-------2---------(0)0------(0)0-------|
D-------(2~)---------3~------------------------------------------|
A----0~--------------------------------------------0h2~----------|
E-----------------------------------------3~---------------------|
     t   d    d u    t   d    (u) d u     t  u  d  t   u d

    C         C/B or G
E-----------------------------------|
B-----(1)1~---------1~--------------|
G-----(0)0~---------0~--0h2---------|
D-------------0~--------------------|
A---3~--------0h2~------------------|
E-----------------------------------|
    t  u d    d     u   f


0:58
     Am               F                 G            C/B or G
E------------------------------------------------------------------|
B--------1--1------------------(1~)---------0-------------0~-------|
G--------2--2--2---------0h2-2--0~---------(0~)----------(0~)------|
D--------------------3~--------------------------------------------|
A----0~---------------------------------------------0h2~-----------|
E--------------------------------------3~--------------------------|
     t   d  u  d     t   f   f  f      t    f       t     f

     C            C/B or G
E----------------------------------|
B--------1-1~----------0-0-0-------|
G---------(0~)-----------0---------|
D-----------------0~---------------|
A----3~-----------0h2~-------------|
E----------------------------------|
     t   u d      d    u d u


    Am               F                 G               G
E----------------------------------------------------------------------|
B-------1~---1-1----------1~---1-1---------0h1~--0~------------0-0-----|
G-------2~---2------------2~---2-----------0~---(0~)-----------0-------|
D--------------------3~------------------------------------------------|
A---0~-----------------------------------------------------------------|
E--------------------------------------3~--------------3~--------------|
    t   d    d u     t    d    d  u    t   d     d     t       d u

"""Interlude"""    1:13
     Am            F           C           G
E----------------------------------------------------------|
B--------1-1-1--------1---1-------1-1-1-------0-0-0--------|
G--------2-2-2--------0h2-0-------0-0-0-------0-0-0h2------|
D-------(2-2-2)----3~-----3-------2---0-------0---0--------|
A----0~------------------------3~--------------------------|
E------------------------------------------3~--------------|
     t   d u d     t  d   d    t  d u d    t  d u d

"""Verse II"""    1:20     It's basically the same, some minor changes
    Am       G         F           C     C C/B
E----------------------------------------------------|
B------1---------0-0--------1-1----------------------|
G------2-2-------0----------2-------0~------0--------|
D-----------------------3~---------------------------|
A---0~------------------------------3~----3-2--------|
E-------------3~-------------------------------------|

The rest of the verse stays the same.

"""Bridge"""    2:13
    Em
E----------------------------------|
B----------0-0-0-0----------0~-----|
G-------0~-0-0-0-0------0~---------|
D-------2~--------------2~---------|  x1
A-------2~-------------------------|
E---0~---------------0~------------|

     F        C         G             Am
E----------------------------------------------------|
B--------1~-------1~-------0-(0-0)--------1-1~-------|
G--------2~-------0~-------0---(0)----------2~-------|
D----3~----------------------------------------------|   x3
A-------------3~----------------------0~-------------|
E-----------------------3~---------------------------|

    F              F              G             G
E---------------------------------------------------------|
B-------1~--1-1-------------1~--------0~--0-0------0~-----|
G-------0~--0-----------0-0-0~--------0~--0---------------|
D---3~-------------3~---3---------------------------------|   y1
A---------------------------------------------------------|
E---------------------------------3~------------3~--------|


If you need the chords, please visit my profile and check out my chordstab :D


Picking legend:
u = strumm up
d = strumm down
t = thumb-picking
f = finger-Řicking

and that's it! I hope this helped, please rate, comment and correct me!

Cheers..
Tap to rate this tab
 
# A B C D E F G H I J K L M N O P Q R S T U V W X Y Z