Song name
# A B C D E F G H I J K L M N O P Q R S T U V W X Y Z

Joshua Radin - Today tab

--------------------------------------------------------------------------------------------------
        TODAY Ė Joshua Radin    
--------------------------------------------------------------------------------------------------
Tabbed by: Dave Bosch
Email: Davidgbosch@gmail.com
NOTE: There are many acoustic variations of this song. 
This tab is for the acoustic version I believe from the We Were Here EP.  
He has some extra hammerís and bends that he throws in that I donít have tabbed here. 

Tuning: standard capo 2

e|-------3-----------------3------------------------------------------------3--------------3-------|
B|-----------------0----------------0-------1-------1-----------------------------0--------------0-|
G|-----------0----------------0---------------0-------------------------------0---------------0----|
D|--------------0----------------0-------2------2-------2----------------------0---------------0---|
A|----2-----------------2-------------3---------------3----0h2p0-----2--------------2--------------|
E|-3-----------------3-------------------------------------------------3--------------3------------|
                                                                                Shoelaces untied
e|---------------------------------------3--------------3------------------------------------------|
B|--------1-------1-----------------------------0--------------0-----1---------1-------------------|
G|----------0------------------------------0--------------0--------------0-------------------------|
D|-----2------2-------2---------------------0--------------0------2-------2-------2----------------|
A|--3---------------3----0h2p0----2--------------2-----------3---------------3----0h2p0------------|
E|----------------------------------3--------------3-----------------------------------------------|
                                               You can         dry your eyes                 Perfect
e|-------3-----------------3------------------------------------------------3--------------3-------|
B|-----------------0----------------0-------1-------1------------------------------0-------------0-|
G|-----------0----------------0---------------0-------------------------------0---------------0----|
D|--------------0----------------0-------2------2-------2----------------------0---------------0---|
A|----2-----------------2-------------3---------------3----0h2p0-----2--------------2--------------|
E|-3-----------------3-------------------------------------------------3--------------3------------|
        Sha---------dows                alive                               behind us
e|-------------------------------------------------------------------------2----------------3p2----|
B|---------1-------1-------3-------3------1------1-------1----------------------3------------------|
G|-----------0----------------0--------------2---------------2--------2----2----------2------------|
D|------2------2-------0-------0-------2------2------2-------2--0----------0----0------------------|
A|---3---------------2----------------0-------------0----------------------------------------------|
E|-------------------------------------------------------------------------------------------------|
      This is the day                   I make you mine 
e|---------------------------------------3--------------3------------------------------------------|
B|--------1-------1-----------------------------0--------------0-----1---------1-------------------|
G|----------0------------------------------0--------------0--------------0-------------------------|
D|-----2------2-------2---------------------0--------------0------2-------2-------2----------------|
A|--3---------------3----0h2p0----2--------------2-----------3---------------3----0h2p0------------|
E|----------------------------------3--------------3-----------------------------------------------|


                                      The way   your   hair   lies                        Sometimes
e|-------3-----------------3------------------------------------------------3--------------3-------|
B|-----------------0----------------0-------1-------1-----------------------------0--------------0-|
G|-----------0----------------0---------------0-------------------------------0---------------0----|
D|--------------0----------------0-------2------2-------2----------------------0---------------0---|
A|----2-----------------2-------------3---------------3----0h2p0-----2--------------2--------------|
E|-3-----------------3-------------------------------------------------3--------------3------------|
         Unrecognized                                                             all the way from
e|---------------------------------------3--------------3------------------------------------------|
B|--------1-------1-----------------------------0--------------0-----------------------------------|
G|----------0------------------------------0--------------0----------------------------------------|
D|-----2------2-------2---------------------0--------------0---------------------------------------|
A|--3---------------3----0h2p0----2--------------2-------------------------------------------------|
E|----------------------------------3--------------3-----------------------------------------------|
         these               to---------------day                                 on a train
e|-------------------------------------------------------------------------2----------------3p2----|
B|---------1-------1-------3-------3------1------1-------1----------------------3------------------|
G|-----------0----------------0--------------2---------------2--------2----2----------2------------|
D|------2------2-------0-------0-------2------2------2-------2--0----------0----0------------------|
A|---3---------------2----------------0-------------0----------------------------------------------|
E|-------------------------------------------------------------------------------------------------|
      Nothing to say if thereís still time              
e|---------------------------------------3--------------3------------------------------------------|
B|--------1-------1-----------------------------0--------------0-----1---------1-------------------|
G|----------0------------------------------0--------------0--------------0-------------------------|
D|-----2------2-------2---------------------0--------------0------2-------2-------2----------------|
A|--3---------------3----0h2p0----2--------------2-----------3---------------3----0h2p0------------|
E|----------------------------------3--------------3-----------------------------------------------|


CHORUS
                                      You                are the one    Iíve been       waiting for
e|----------------------------------------------------------------------------3--------------3-----|
B|---------0-------0-------0-------0------1-------1------------------------------0---------------0-|
G|------------0----------------0--------------0------------------------------0---------------0-----|
D|------2-------2-------2-------2------2-------2-------2---------------------0---------------0-----|
A|---2----------------2---------------3---------------3-----0h2p0----2--------------2--------------|
E|----------------------------------------------------------------------3--------------3-----------|
    Today                                                               Here          comes the sun
e|-------------------------------------------------------------------------------------------------|
B|--------1-------1-------------------------0------0------0-------0------1------1------------------|
G|----------0----------0----------------------0--------------0--------------0----------------------|
D|-----2------2----2--------------------2------2------2-------2------2------2-------2--------------|
A|--3---------------------0h2p0----2--------------2---------------3--------------3----0h2p0--------|
E|-------------------------------------------------------------------------------------------------|

    Itís been, baiting on                                            today      
e|--------3---------------3------------------------------------------------------------------------|
B|----------------0----------------0-------1-------1-----------------------------------------------|
G|----------0----------------0----------------0----------------------------------------------------|
D|-------------0----------------0-------2-------2-------2------------------------------------------|
A|-----2---------------2-------------3----------------3-----0h2p0----------------------------------|
E|--3---------------3------------------------------------------------------------------------------|

e|-------3-----------------3------------------------------------------------3--------------3-------|
B|-----------------0----------------0-------1-------1-----------------------------0--------------0-|
G|-----------0----------------0---------------0-------------------------------0---------------0----|
D|--------------0----------------0-------2------2-------2----------------------0---------------0---|
A|----2-----------------2-------------3---------------3----0h2p0-----2--------------2--------------|
E|-3-----------------3-------------------------------------------------3--------------3------------|
                                                                          Lately Iíve lost my tongue
e|---------------------------------------3--------------3------------------------------------------|
B|--------1-------1-----------------------------0--------------0-----1---------1-------------------|
G|----------0------------------------------0--------------0--------------0-------------------------|
D|-----2------2-------2---------------------0--------------0------2-------2-------2----------------|
A|--3---------------3----0h2p0----2--------------2-----------3---------------3----0h2p0------------|
E|----------------------------------3--------------3-----------------------------------------------|
                                      Today youíve  found the sun
e|-------3-----------------3------------------------------------------------3--------------3-------|
B|-----------------0----------------0-------1-------1-----------------------------0--------------0-|
G|-----------0----------------0---------------0-------------------------------0---------------0----|
D|--------------0----------------0-------2------2-------2----------------------0---------------0---|
A|----2-----------------2-------------3---------------3----0h2p0-----2--------------2--------------|
E|-3-----------------3-------------------------------------------------3--------------3------------|
 
Oh no,                 not                      long,                                  has grown
e|-------------------------------------------------------------------------2----------------3p2----|
B|---------1-------1-------3-------3------1------1-------1----------------------3------------------|
G|-----------0----------------0--------------2---------------2--------2----2----------2------------|
D|------2------2-------0-------0-------2------2------2-------2--0----------0----0------------------|
A|---3---------------2----------------0-------------0----------------------------------------------|
E|-------------------------------------------------------------------------------------------------|
Well I thank God you came along
e|---------------------------------------3--------------3------------------------------------------|
B|--------1-------1-----------------------------0--------------0-----1---------1-------------------|
G|----------0------------------------------0--------------0--------------0-------------------------|
D|-----2------2-------2---------------------0--------------0------2-------2-------2----------------|
A|--3---------------3----0h2p0----2--------------2-----------3---------------3----0h2p0------------|
E|----------------------------------3--------------3-----------------------------------------------|




CHORUS
                                      You                are the one    Iíve been       waiting for
e|----------------------------------------------------------------------------3--------------3-----|
B|---------0-------0-------0-------0------1-------1------------------------------0---------------0-|
G|------------0----------------0--------------0------------------------------0---------------0-----|
D|------2-------2-------2-------2------2-------2-------2---------------------0---------------0-----|
A|---2----------------2---------------3---------------3-----0h2p0----2--------------2--------------|
E|----------------------------------------------------------------------3--------------3-----------|
    Today                                                               Here          comes the sun
e|-------------------------------------------------------------------------------------------------|
B|--------1-------1-------------------------0------0------0-------0------1------1------------------|
G|----------0----------0----------------------0--------------0--------------0----------------------|
D|-----2------2----2--------------------2------2------2-------2------2------2-------2--------------|
A|--3---------------------0h2p0----2--------------2---------------3--------------3----0h2p0--------|
E|-------------------------------------------------------------------------------------------------|

    Itís been, baiting on                                            today      
e|--------3---------------3------------------------------------------------------------------------|
B|----------------0----------------0-------1-------1-----------------------------------------------|
G|----------0----------------0----------------0----------------------------------------------------|
D|-------------0----------------0-------2-------2-------2------------------------------------------|
A|-----2---------------2-------------3----------------3-----0h2p0----------------------------------|
E|--3---------------3------------------------------------------------------------------------------|

BRIDGE  
                                                                                   You looked right 
e|--------3---------------3-------------------------------------------------0---------------0------|
B|----------------0----------------0-------1-------1------------------------------1----------------|
G|----------0----------------0----------------0-------------------------------2--------------------|
D|-------------0----------------0-------2-------2-------2--------------2------2-------2------------|
A|-----2---------------2-------------3----------------3---0h2p0---0--------------0-----------------|
E|--3---------------3------------------------------------------------------------------------------|
            Through me when   there was no one else     
e|---------2---------------3p2-------3---------------3---------------------------------------------|
B|-----------3----3---------------------------0---------------0------1-------1---------------------|
G|------2------2-------2----------------0---------------0--------------0---------------------------|
D|---0---------------0---------------------0---------------0------2-------2-------2----------------|
A|-----------------------------------2--------------2------------3---------------3----0h2p0--------|
E|--------------------------------3--------------3-------------------------------------------------|
   I sat                           beside you and           became                            myself




e|------0---------------0------2--------------3p2-------3-------------3----------------------------|
B|-------------1-----------------3----3-------------------------0------------0-----1------1--------|
G|--------2------------------2------2------2--------------0-------------0------------0-------------|
D|---2------2-------2-----0-------------0-------------------0-------------0------2------2-----2----|
A|0--------------0-----------------------------------2---------------2---------3------------3---0--|
E|-------------------------------------------------3---------------3-------------------------------|
                                      Today                                                 Today
e|-------3-----------------3------------------------------------------------3--------------3-------|
B|-----------------0----------------0-------1-------1-----------------------------0--------------0-|
G|-----------0----------------0---------------0-------------------------------0---------------0----|
D|--------------0----------------0-------2------2-------2----------------------0---------------0---|
A|----2-----------------2-------------3---------------3----0h2p0-----2--------------2--------------|
E|-3-----------------3-------------------------------------------------3--------------3------------|

CHORUS
                                      You                are the one    Iíve been       waiting for
e|----------------------------------------------------------------------------3--------------3-----|
B|---------0-------0-------0-------0------1-------1------------------------------0---------------0-|
G|------------0----------------0--------------0------------------------------0---------------0-----|
D|------2-------2-------2-------2------2-------2-------2---------------------0---------------0-----|
A|---2----------------2---------------3---------------3-----0h2p0----2--------------2--------------|
E|----------------------------------------------------------------------3--------------3-----------|
    Today                                                               Here          comes the sun
e|-------------------------------------------------------------------------------------------------|
B|--------1-------1-------------------------0------0------0-------0------1------1------------------|
G|----------0----------0----------------------0--------------0--------------0----------------------|
D|-----2------2----2--------------------2------2------2-------2------2------2-------2--------------|
A|--3---------------------0h2p0----2--------------2---------------3--------------3----0h2p0--------|
E|-------------------------------------------------------------------------------------------------|

    Itís been, baiting on                                            today      
e|--------3---------------3------------------------------------------------------------------------|
B|----------------0----------------0-------1-------1-----------------------------------------------|
G|----------0----------------0----------------0----------------------------------------------------|
D|-------------0----------------0-------2-------2-------2------------------------------------------|
A|-----2---------------2-------------3----------------3-----0h2p0----------------------------------|
E|--3---------------3------------------------------------------------------------------------------|

e|-------3-----------------3------------------------------------------------3--------------3-------|
B|-----------------0----------------0-------1-------1-----------------------------0--------------0-|
G|-----------0----------------0---------------0-------------------------------0---------------0----|
D|--------------0----------------0-------2------2-------2----------------------0---------------0---|
A|----2-----------------2-------------3---------------3----0h2p0-----2--------------2--------------|
E|-3-----------------3-------------------------------------------------3--------------3------------|
                                                                                

e|---------------------------------------3--------------3------------------------------------------|
B|--------1-------1-----------------------------0--------------0-----1---------1-------------------|
G|----------0------------------------------0--------------0--------------0-------------------------|
D|-----2------2-------2---------------------0--------------0------2-------2-------2----------------|
A|--3---------------3----0h2p0----2--------------2-----------3---------------3----0h2p0------------|
E|----------------------------------3--------------3-----------------------------------------------|

e|-------3-----------------3------------------------------------------------3--------------3-------|
B|-----------------0----------------0-------1-------1-----------------------------0--------------0-|
G|-----------0----------------0---------------0-------------------------------0---------------0----|
D|--------------0----------------0-------2------2-------2----------------------0---------------0---|
A|----2-----------------2-------------3---------------3----0h2p0-----2--------------2--------------|
E|-3-----------------3-------------------------------------------------3--------------3------------|
                                                                                
e|---------------------------------------3--------------3------------------------------------------|
B|--------1-------1-----------------------------0--------------0-----1---------1-------------------|
G|----------0------------------------------0--------------0--------------0-------------------------|
D|-----2------2-------2---------------------0--------------0------2-------2-------2----------------|
A|--3---------------3----0h2p0----2--------------2-----------3---------------3----0h2p0------------|
E|----------------------------------3--------------3-----------------------------------------------|



************************************

| /   slide up
| \   slide down
| h   hammer-on
| p   pull-off
| ~   vibrato
| +   harmonic
| x   Mute note
| b   Bend
| pb  Pre-bend
| br  Bend release
| pbr Pre-bend release
| brb Bend release bend

************************************
Tap to rate this tab
 
# A B C D E F G H I J K L M N O P Q R S T U V W X Y Z