Guitaretab - guitar tabs
Song name
# A B C D E F G H I J K L M N O P Q R S T U V W X Y Z

Joshua Radin - Paperweight tab

            PAPERWEIGHT - Joshua Radin and Schuyler Fisk
-----------------------------------------------------------------------------------------|
Tabbed by: Matt LeFevers
Email: label@ndp-records.com

Standard Tuning
Capo 1st Fret

h = hammer-on

  Verse Riff (0:00)
E--0----0----0-----------|--0----0----0-----|
B--0---h1----3-----------|--0---h1----3-----|
G--0---h2----2-----------|--0---h2----2-----|
D--2---h2----0-----------|--2---h2----0-----|
A--2----0----------------|--2----0----------|
E--0--------------3-2-0--|--0---------------|

  Prechorus (0:31)
E--0----0----0----0----|--0----0----2----|
B--1----3----0----3----|--1----3----3----|
G--0----0----0----2----|--0----0----2----|
D--2----0----2----0----|--2----0----0----|
A--3----2----2---------|--3----2---------|
E------------0---------|-----------------|
[ Tab from: http://www.guitaretab.com/j/joshua-radin/78163.html ]
  Chorus (0:41)
E--3---------2---------3---------0----------|
B--3---------3---------3---------1----------|
G--0---------2---------0---------0----------|
D--0---------0---------0---------2----------|
A--2-------------------2---------3----------|
E--3-------------------3--------------------|

E--3---------2---------0---------3----2-----|
B--3---------3---------1---------3----3-----|
G--0---------2---------0---------0----2-----|
D--0---------0---------2---------0----0-----|
A--2-------------------3---------2----------|
E--3-----------------------------3----------|

  Bridge (2:11)
E--0--------0--------3--------0--------|--0--------|
B--1--------3--------3--------1--------|--1--------|
G--2--------2--------0--------0--------|--0--------|
D--2--------0--------0--------2--------|--2--------|
A--0-----------------2--------3--------|--3--------|
E--------------------3-----------------|-----------|
Related for Paperweight tab
×
Paperweight