Song name
# A B C D E F G H I J K L M N O P Q R S T U V W X Y Z

Joshua Soriano - Pay Phone tab

INTRO

Main chords that you hold
E-----------7-----------------------------------------------------0--------------------|
B-----------7------------------2--------2-------------------------0--------------------|
G-----------7------------------2--------2-------------------------1--------------------|
D-----------0------------------2--------4-------------------------0--------------------|
A------------------------------0--------0-------------------------2--------------------|
D---------------------------------------4-------------------------2--------------------|

So when plucked...
E------0---5/7----5-----5-4-0--------------------------------------------|-----|
B--2-3-------7----5-----------3----2-----3-2----3---2---0-----2-0------0-|-----|
G---------------7------------------2---------2------------4-2----------1-|---2-|
D--------------0-----------------2--------------------4------------------|-----|
A-------------------------------0------------------------------------2---|-----|
D------------------------------------------------4----------------2------|-----|


VERSE

Main chords that you hold
E---5------------------5------------------0---------------------------------------------|
B---5------------------5------------------2--------------------0------------------------|
G---6------------------6------------------4--------------------4------------------------|
D---7------------------7------------------4--------------------2------------------------|
A---0------------------0------------------0--------------------2------------------------|
D---0-------------------------------------4--------------------2------------------------|

So when plucked... (approx.)
E---------------------------------------------000--------------------------------|
B-------555-----------------555---------------222-222----------------555---------|
G-------666-666-------------666-666---------------444----------------444-444-2---|
D-----------777--7--------7-----777--7------4----------4-----------------222-----|
A-----0----------------0------------------------------------------2--------------|
D---0-------------------------------------4---------------------2----------------|

E---------------------------------------------000---------------------------------|
B-------555-----------------555---------------222-222-0---------3-2-0--3-2-0------|
G-------666-666-------------666-666---------4-----444-4---------2-2-2--2-2-2------|
D-----------777--7--------7-----777--7--------------------------------------------|
A-----0----------------0-------------------------------------------4------4-------|
D---0-------------------------------------4---------------------2----- 2----------|

E------------------------------------------------------------------------------0--|
B---2---2---2-22-0-----2---2---2-22-0-----2---2----2-22-3-------0---0----0--------|
G---2---2---2-22-------2---2-2-2-22-------2---2----2-22---------2---2----1--22----|
D---------0--------------2----------------------4---------------------2-----------|
A-----0----------------0--------------------4---------------------2---------------|
D---0-------------------------------------4---------------------2-----------------| x2
Tap to rate this tab
# A B C D E F G H I J K L M N O P Q R S T U V W X Y Z