Song name
# A B C D E F G H I J K L M N O P Q R S T U V W X Y Z

Josiah Gentry - The Mistakes I Made Yesterday tab

Official Website: www.myspace.com/themiddleseat


The Mistakes I Made Yesterday

Josiah Gentry

Tuning: Standard, Capo Fret 3


INTRO/VERSES 1 & 2

[------------------------]
[------3----3----3----3--]
[----0----0----0----0----]
[--2----0----------------]
[------------3----2------]
[------------------------]

Chorus (instrumental first time through)

[------------------------]
[------3----3----3----3--]
[----0----0----0----0----]
[------------------------]
[-------2----3----0------]
[--3---------------------]

Verse 3

[------3----3----3----3--]
[------3----3----3----3--]
[----0----0----0----0----]
[--2----0----------------]
[------------3----2------]
[------------------------]




Lyrics:

Verse 1

Don't say that
Cause I know you never warned me
Don't Talk Again
Your words could never warm me

Chorus riff (without words) 2 times through

Verse 2 

She's fallin' asleep
But one thought still disturbs her
We, will never be the same again

I'm sure
I'm sure
I'm sure it'll be all okay

Verse 3

Don't say that
Cause I know you never warned me
Don't Talk Again
Your words could never warm me

I hope
I hope
I hope the mistakes I made yesterday
will all turn out okay

I'm sure
I'm sure
I'm sure it'll be all oaky

Tap to rate this tab
# A B C D E F G H I J K L M N O P Q R S T U V W X Y Z