Song name
# A B C D E F G H I J K L M N O P Q R S T U V W X Y Z

Josie And The Pussycats - Come On tab

intro: 4 times
e ----------------|
b ----------------|
g ----------------|
d --9--10--10-----|
a --9--10--10-----|
e --7---8---8-----|

verse: 4 times | ''i dont wanna be your girlfriend''
e -------------------------------------|
b -------------------------------------|
g -----------10------------------------|
d --10-------9-- x6---8--------6-------|
a --8-- x6---9--------8-- x6---6-------| x6
e --8-----------------6--------4-------|

pos chorus: 12 times | ''...better make up your mind''
e -----
b -----
g -----
d --6x--
a --6x--
e --4x--

chorus: ''are you in?, are you out?''
e --------------------------------------|
b --------------------------------------|
g -----------10-------------------------|
d --10-------8-- x6---10--------5-------|
a --8-- x6---8--------10-- x6---5-------| x6
e --8------------------8--------3-------|

continues:
e ------------------------------------------------|
b ------------------------------------------------|
g -----------10-----------------------------------|
d --10-------8-- x6---10--------5-------3-------5-|
a --8-- x6---8--------10-- x6---5-- x6--3-- x6--5-|
e --8------------------8--------3-------1-------3-|

continues: 4 times | ''come on, come on''
e ------------------------|
b ------------------------|
g------------10-----------|
d --10-------8-- x6-------|
a --8-- x6---8------------|
e --8---------------------|


tabbed by karina vidal, comments:  karina_kgvc@hotmail.com
Tap to rate this tab
# A B C D E F G H I J K L M N O P Q R S T U V W X Y Z