Guitaretab - guitar tabs
Song name
# A B C D E F G H I J K L M N O P Q R S T U V W X Y Z

Josie And The Pussycats - Youre A Star tab

---------------------------------------------------
	  You're A Star- Josie and the Pussycats
---------------------------------------------------
Tabbed by: mercedes_gurl05
Tuning: regular

  Intro
e|------------------------------------------------|
B|------------------------------------------------|
G|-7-7--------------------------------------------|
D|-7-7--4-4--5-5--5-------------------------------|
A|-5-5--4-4--5-5--5-------------------------------|
E|------2-2--3-3-3-------------------------------|
  Verse
e|------------------------------------------------|
B|------------------------------------------------|
G|-7---------------------7------------------------|
D|-7-x8-4----5----7------7-x8-4----5----7---------|
A|-5----4-x8-5-x8-7-x8---5----4-x8-5-x8-7-x8------|
E|------2----3----5-----------2----3----5---------|

e|------------------------------------------------|
B|------------------------------------------------|
G|------------------------------------------------|
D|-12----11----9----8----7-7-x-x-x-x-x-x----------|
A|-12-x8-11-x8-9-x8-8-x8-7-7-x-x-x-x-x-x-x2-------|
E|-10-----9----7----6----5-5-x-x-x-x-x-x----------|

e|------------------------------------------------|
B|------------------------------------------------|
G|-7---------------------7------------------------|
D|-7-x8-4----5----7------7-x8-4----5----7---------|
A|-5----4-x8-5-x8-7-x8---5----4-x8-5-x8-7-x8------|
E|------2----3----5-----------2----3----5---------|
  




[ Tab from: http://www.guitaretab.com/j/josie-and-the-pussycats/27427.html ]
  Bridge
e|------------------------------------------------|
B|------------------------------------------------|
G|------------------------------------------------|
D|-12----11----9----8----7-7-x-x-x-x-x-x----7-----|
A|-12-x8-11-x8-9-x8-8-x8-7-7-x-x-x-x-x-x-x3-7-----|
E|-10-----9----7----6----5-5-x-x-x-x-x-x----5-----|
  Chorus
e|------------------------------------------------|
B|------------------------------------------------|
G|-7---------------------7------------------------|
D|-7-x8-4----5----7------7-x8-4----5----7---------|
A|-5----4-x8-5-x8-7-x8---5----4-x8-5-x8-7-x8------|
E|------2----3----5-----------2----3----5---------|
  Verse
e|------------------------------------------------|
B|------------------------------------------------|
G|-7---------------------7------------------------|
D|-7-x8-4----5----7------7-x8-4----5----7---------|
A|-5----4-x8-5-x8-7-x8---5----4-x8-5-x8-7-x8------|
E|------2----3----5-----------2----3----5---------|
  Bridge
e|------------------------------------------------|
B|------------------------------------------------|
G|------------------------------------------------|
D|-12----11----9----8----7-7-x-x-x-x-x-x----7-----|
A|-12-x8-11-x8-9-x8-8-x8-7-7-x-x-x-x-x-x-x3-7-----|
E|-10-----9----7----6----5-5-x-x-x-x-x-x----5-----|
  Chorus
e|------------------------------------------------|
B|------------------------------------------------|
G|-7---------------------7------------------------| x4
D|-7-x8-4----5----7------7-x8-4----5----7---------|
A|-5----4-x8-5-x8-7-x8---5----4-x8-5-x8-7-x8------|
E|------2----3----5-----------2----3----5---------|





End on 
e|------------------------------------------------|
B|------------------------------------------------|
G|-7----------------------------------------------|
D|-7----------------------------------------------|
A|-5----------------------------------------------|
E|------------------------------------------------|





| /  slide up
| \  slide down
| h  hammer-on
| p  pull-off
| ~  vibrato
| +  harmonic
| x  Mute note
===================================================
Related for Youre A Star tab