Song name
# A B C D E F G H I J K L M N O P Q R S T U V W X Y Z

Josipa Lisac - Ljubav chords

Highlighted       Show chord diagrams
-------------------------------------------------------------------------------
                             Ljubav - Josipa Lisac ft. Quasarr
-------------------------------------------------------------------------------

Lagana pjesma, skoro sve po tri akorda.. Valjda ce vam se svidjeti.. :D


uvod: C#m , G#m , A

C#m   G#m     A
  Kad zastori padnu
C#m           G#m
kao tihe kapi kise
   A
na tlo

C#m G#m      A
  I vidim te nijemu
C#m        G#m   
samo blagi osmijeh
A
na licu tvom, uouoooh

C#m , G#m , A x2
e|----0---------------------------------------------|
B|2-2---4-------------------------------------------|
G|--------------------------------------------------|
D|--------------------------------------------------|
A|--------------------------------------------------|
E|--------------------------------------------------|

C#m G#m A ... itd.
Ja osjetim ljubav
kao toplu zraku sunca tvog
ti pripadas ovdje
i zauvijek budi samo moj

C#m , G#m , A x2
e|----0---------------------------------------------|
B|2-2---4-------------------------------------------|
G|--------------------------------------------------|
D|--------------------------------------------------|
A|--------------------------------------------------|
E|--------------------------------------------------|


Ref.
B   C#m       G#m
Kao sjaj koji blijedi
  A           B (ili F#m) G#m  C#m
i nestaje nas virtu-------alni svijet
    C#m         G#m
kao cvijet koji vene
  A           B (ili F#m) G#m  C#m
i nestaje nas virtu-------alni svijet

C#m , G#m , A x2
e|----0---------------------------------------------|
B|2-2---4-------------------------------------------|
G|--------------------------------------------------|
D|--------------------------------------------------|
A|--------------------------------------------------|
E|--------------------------------------------------|

C#m G#m A (itd...)
Zelim osjetit ljubav
kao topli dah
na licu mom
i ove usne sto ceznu
jer traze samo dodir tvoj

C#m , G#m , A x2
e|----0---------------------------------------------|
B|2-2---4-------------------------------------------|
G|--------------------------------------------------|
D|--------------------------------------------------|
A|--------------------------------------------------|
E|--------------------------------------------------|


Ref.
Tap to rate this tab
 
# A B C D E F G H I J K L M N O P Q R S T U V W X Y Z