Guitaretab - guitar tabs
Song name
# A B C D E F G H I J K L M N O P Q R S T U V W X Y Z

Joss Stone - Fell In Love With A Boy tab

-----------------------------------------------------------------------------
                    Joss Stone - Fell In Love With A Boy
-----------------------------------------------------------------------------
Tabbed by:MackDaddyMike24
Email:afikid2@yahoo.com

This is a very cool song! I figured it all out and tabbed it for you all!
Your Welcome! lol Well anyways This should be right, have fun with it everyone! 

Tuning:Standard Tuning

b=Bend
~=String wiggle

Intro:
e|--------------------------------------------------------------------------|
B|--------------------------------------------------------------------------|
G|---9b-9-7---7~--3~---9b-9-7---7~-9b---------------------------------------|
D|----------9-----------------9---------------------------------------------|
A|--------------------------------------------------------------------------|
E|--------------------------------------------------------------------------|
[ Tab from: http://www.guitaretab.com/j/joss-stone/48172.html ]
Verse:
e|1-1-1-----5-5-5-----3-3-3---2-2-2-----------------------------------------|
B|1-1-1-x7--6-6-6-x6--4-4-4---2-2-2-----------------------------------------|
G|0-0-0-----5-5-5-----3-3-3---3-3-3-----------------------------------------|
D|--------------------------------------------------------------------------|
A|--------------------------------------------------------------------------|
E|--------------------------------------------------------------------------|

Chorus
E|--------------------------------------------------------------------------|
B|--------------------------------------------------------------------------|
G|-9b-9-7---7~-9b----9b-9-7~--7~-3~-----------------------------------------|
D|--------9~----------------9-----------------------------------------------|
A|--------------------------------------------------------------------------|
E|--------------------------------------------------------------------------|


Have fun with it, rate this baby!
Related for Fell In Love With A Boy tab
Advertisement will be closed in 10 seconds