Song name
# A B C D E F G H I J K L M N O P Q R S T U V W X Y Z

Joss Stone - Super Duper Love tab

Super Duper Love tab!!

by Mr. Sinistah

enjoy:D

Joss Stone rocks!!

Standard, i use my neck with low low tone on clean.

E||---------17b~-----------|----17--15----12------------------|
B||------------------------|------------------15--12h-15------|
G||------------------------|------------------------------14--|
D||------------------------|----------------------------------|
A||------------------------|----------------------------------|
E||------------------------|----------------------------------|


 
------------------------------|---------------------------------|
------------------15--13--15--|------15-------------------------|
--12~------/16----------------|--16-----14---------12--14p--12--|
------------------------------|-----------------14--------------|
------------------------------|---------------------------------|
------------------------------|---------------------------------|



-----------------------------------|---------15b~------15~----|
-------------------------------15--|--------------------------|
--12~--------------12--14--16------|--------------------------|
-----------12h-14------------------|--------------------------|
-----------------------------------|--------------------------|
-----------------------------------|--------------------------|


 
--15p-12-----12-------------------------------|
---------15-----15p-12--15p-12-----12---------|
-------------------------------14-----14p-12--|
----------------------------------------------|
----------------------------------------------|
----------------------------------------------|


        
--------------------------------------|-------||
--------------------------------------|-------||
--14--12--12h-14-12----12-14s---16----|-------||
--------------------14----------------|-------||
--------------------------------------|-------||
--------------------------------------|-------||
Tap to rate this tab
# A B C D E F G H I J K L M N O P Q R S T U V W X Y Z