Song name
# A B C D E F G H I J K L M N O P Q R S T U V W X Y Z

Journey - Once You Love Somebody tab

Intro:
e |--------------------------------------------------|
b |--------------------------------------------------|
g |--------------------------------------------------|
d |0h2---0-0h2------0-----------------0-0h2--0-------|
a |--------------0h2-------------0-0h2---------2-0---|
E |-------------------0----000h3---------------------|

Then near the end of the song

e |---------------------|
b |---------------------|
g |---------------------|   x 3
d |0h2---0-0h2------0---|
a |--------------0h2----|
E |-------------------0-|

At the end of the third time play:

e |-------------------------|
b |-------------------------|
g |-------------------------|
d |-----------0-0h2--0------|
a |------0-0h2---------2-0--|
E |000h3--------------------|
Tap to rate this tab
# A B C D E F G H I J K L M N O P Q R S T U V W X Y Z