Song name
# A B C D E F G H I J K L M N O P Q R S T U V W X Y Z

Journey - Majestic tab

"Majestic" by Journey
Tab by Chris Zwick
My email address is larryandbob09@hotmail.com

The Reason I Tabbed this song is because I think its a good excersise on the fingers and
pretty easy once you get the hang of it. There are a few parts that I was unsure of and
find out where when you play this song, if you got any corrections just email me and 
me and I'll change it.
      "Please Read This is For Journey Fans"
I am willing to tab any song by Joureny that I have in my music library. But I will only
the song if there is enough people who want it tabbed or on special occasions I'll do
for just one person. But to have me tab a song I have to have at least 15 to 20 emails 
me saying you want it. So if you want something to be tabbed by Journey I will do it as
as I can.

Thank You For reading this tab and please rate.

Guitar 2                            Guitar 1
Intro
e-----------5---------5-|        e-------------|
B-----3---3-----3---3---|        B-------------|
G---2---2-----2---2-----|        G-------------|
D--0--------------------| x4     D---7---7-----| this is during the
A-----------------------|        A---7---7-----| begining of the intro
E-----------------------|        E---5---5-----| listen for timing

e--------2--------2-|            e-------------|
B----3--3-----3--3--|            B-------------|
G---2--2-----2--2---|x3          G-------------|
D--0----------------|            D---7---------|
A-------------------|            A---7---------|
E-------------------|            E---5---------|

e--------0--------0-|            e---------------|
B----3--3-----3--3--|            B---------------|
G---2--2-----2--2---|            G---------------|
D--0----------------|            D---7---7---7-7-|
A-------------------|            A---7---7---7-7-|
E-------------------|            E---5---5---5-5-|

Now The Rest Is Guitar 1's solo, I can't really tell if theres a guitar 2 during the
but I highly doubt it, and this is my first tab so go easy on me a little bit

Guitar 1
e-----------------------------------------------------------|
B------------------.-.-.-.------------------.-.-------------|
G---7--7---7--7----7-7-7-7---7--7---7--7----7-7-------------|
D---7--7---7--7----7-7-7-7---7--7---7--7----7-7-------------|
A---5--5---5--5----5-5-5-5---5--5---5--5----5-5-------------|
E-----------------------------------------------------------|

Solo
e--15h----13--12h---12--13----15-15-15-13-12-11----15--15--13-12-12-11-----|
B-----------------------------------------------12--------------------12-10|
G--------------------------------------------------------------------------|
D--------------------------------------------------------------------------|
A--------------------------------------------------------------------------|
E--------------------------------------------------------------------------|

e---------------------------------------------------------------|
B--7-9-7-9-7-5--5-5b-5b--5-7/9\7-5-7/12--15-17-15--19-17-17-17--|
G---------------------------------------------------------------|
D---------------------------------------------------------------|
A---------------------------------------------------------------|
E---------------------------------------------------------------|

e----------------------19-21--19-19--21b--|
B--17-19-19-21-17-19-21-------------------|
G-----------------------------------------|
D-----------------------------------------|
A-----------------------------------------|
E-----------------------------------------|

e--19-17-15-15b-15b-15b-12--15-17-19-21--19-17-19-21--22?x5-|
B-----------------------------------------------------------|
G-----------------------------------------------------------|
D-----------------------------------------------------------|
A-----------------------------------------------------------|
E-----------------------------------------------------------|

The question mark at the end of 22 is an I'm not sure because my fret board on my guitar
goes to 21 so I can't really help you on that part but you do play 22 five times till
end

The "Key things"
b= bend the string
\= slide down the fret board
/= slide up the fret board
h= hold note out
.(the dots above the notes)= palm mute
Tap to rate this tab
 
# A B C D E F G H I J K L M N O P Q R S T U V W X Y Z