Song name
# A B C D E F G H I J K L M N O P Q R S T U V W X Y Z

Journey - Separate Ways tab

Journey
"Separate Ways (Worlds Apart)"

Intro
|--------------------|
|--------------------|
|--3-3-33-3-3-----3--|
|--1-1-11-1-1-xxxx1--|
|--------------------|
|--------------------|

Pre-Chorus
|--------------------|--------------------|
|--------------------|--------------------|
|----------7----5----|--------------------|
|----------5----3----|----------7-55--7-99|
|9----7--------------|9----7----5-33--5-77|
|7----5--------------|7----5--------------|

Chorus
|--------------------|
|--------------------|
|--------------------|
|----------5--7------|
|7----5----3--5--7--9|
|5----3----------5--7|

Solo
|---7/12h--14-15-----||---7/12h--14-15-----|-16---14-15-16-1514--12-|
|--------------------||--------------------|---15-------------------|
|--------------------||--------------------|------------------------|
|--------------------||--------------------|------------------------|
|--------------------||--------------------|------------------------|
|--------------------||--------------------|------------------------|

|--------------------||---7/12h--14-15--17-151413-----------7-8-9---|
|-10-9-9-------------|---------------------------1215141311---------|
|---------10-9-------|----------------------------------------------|
|-------------10-----|----------------------------------------------|
|--------------------|----------------------------------------------|
|--------------------|----------------------------------------------|

Ending
|--------|
|--------|
|--------|
|--7---77|
|--5---55|
|--------|

Enjoy!
Tap to rate this tab
 
# A B C D E F G H I J K L M N O P Q R S T U V W X Y Z