Song name
# A B C D E F G H I J K L M N O P Q R S T U V W X Y Z

Journey - Whos Crying Now tab

I have the full tab also (in a chord chart lol) check it out and more importantly .....   RATE!!!

EPIC SOLO!! - i split it into parts, listen out!

Part A

e|--------15----15----15----15-----------15----15----15----15---|
B|--15b17----15----13----12--------15b17----15----13----12------|
G|--------------------------------------------------------------|
D|--------------------------------------------------------------|
A|--------------------------------------------------------------|
E|--------------------------------------------------------------|

e|--------15----15----15-----------------|
B|--15b17----15----13----12----12~~~~----|
G|--------------------------14-----------|
D|---------------------------------------|
A|---------------------------------------|
E|---------------------------------------|

Part B

e|--------15----15-----15b17-----------15----15----15b17---|
B|--15b17----15----13------------15b17----15----13---------|
G|---------------------------------------------------------|
D|---------------------------------------------------------|
A|---------------------------------------------------------|
E|---------------------------------------------------------|

e|--------15----15----15-----------------|
B|--15b17----15----13----12----12~~~-----|
G|--------------------------14-----------|
D|---------------------------------------|
A|---------------------------------------|
E|---------------------------------------|


Part C 

e|-----------------------------------------------------|
B|-----------------------------------------------------| << means slide
G|--12h14-14~~<---14p12--------------------------------| ~ = vibrato?
D|----------------------12<<10h12-b13r12----10-12~~<<--|
A|---------------------------------------12~-----------|
E|-----------------------------------------------------|

e|-------------------------------------------17---17b19--20*-|
B|-----------------------------15b17-------17--17------------|
G|------12h14-14~-12----12>>14-------17-14-------------------|
D|->>14--------------14--------------------------------------|
A|-----------------------------------------------------------|
E|-----------------------------------------------------------|

e|--15h17-17--15h17b19r-17p15-17b19r17-p15-------|
B|------------------------------------------17~--|
G|-----------------------------------------------|
D|-----------------------------------------------|
A|-----------------------------------------------|
E|-----------------------------------------------|

e|--15h17-17--15h17b20--17p15h17-----------------|
B|-------------------------------17-17~~~<<------|
G|-----------------------------------------------|
D|-----------------------------------------------|
A|-----------------------------------------------|
E|-----------------------------------------------|

Part E
                   (fast)
e|------------------------------------------|
B|---15--17b18r17--13h15--------------------|
G|------------------------------------------| 
D|------------------------------------------|
A|------------------------------------------|
E|------------------------------------------|

e|-12------------------------------------------------------| You've REALLY
B|----15p13p12-13p12----12----13p12------------------------| gotta listen 
G|-------------------14----14------14---12-12h14-----------| close for this
D|-----------------------------------------------14~~------| part!!!!!
A|---------------------------------------------------------|
E|---------------------------------------------------------|

ENDING

e|--------15----15----15----15---------15----15----15b17r15--p13--|
B|--15b17----15----13----12------15b17----15----13----------------|
G|----------------------------------------------------------------|
D|----------------------------------------------------------------|
A|----------------------------------------------------------------|
E|----------------------------------------------------------------|

and reapeat part A

Any questions or u dont understand it, just message :P lol
Enjoy.

\m/ Rock On!!
Tap to rate this tab
# A B C D E F G H I J K L M N O P Q R S T U V W X Y Z