Song name
# A B C D E F G H I J K L M N O P Q R S T U V W X Y Z

Journey - Dont Stop Believing Acoustic tab

e|-0-----0----0------0--0--0------0------0---0---0---0-------0-------0---0--|
B|----0----0-----0---0--0--0---0-----0-------0---0---0---0---0---0---0---0--|
G|-----------------------------4-----4-------------------6-------6----------|
D|-----------------------------4-----4-------------------6-------6----------|
A|-------------------------2------2------2---4---6---4-------4-------4---6--|
E|-0-----0----0------2--4---------------------------------------------------|

e|-0----0-----0-------0---0---0-----------------------|
B|-0----0--0--0---0---0---0---0-----------------------|
G|---------2------2-----------------------------------|
D|---------2------2------------------| ============---|
A|-7----0-----0-------0---6---7-----------------------|
E|----------------------------------------------------|


e|-0-----0----0------0--0--0------0------0---0---0---0-----0-----0------|
B|----0----0-----0---0--0--0---0-----0-------0---0---0-----0-----0------|
G|-----------------------------4-----4---------------4-----4-----4------|
D|-----------------------------4-----4------------------4-----4---------|
A|-------------------------2------2------2---4---6----------------------|
E|-0-----0----0------2--4-----------------------------4-------------4---|


e|---0-----0-------0---0---0-----|
B|---0--0--0---0---0---0---0-----|
G|------2------2-----------------|
D|------2------2-----------------|     Back to the Beginning
A|---0-----0-------0---6---7-----|
E|-------------------------------|
Tap to rate this tab
# A B C D E F G H I J K L M N O P Q R S T U V W X Y Z