Song name
# A B C D E F G H I J K L M N O P Q R S T U V W X Y Z

Journey - Open Arms tab

E----------0-2--------0--------------------|
B--------------3--------2-3--3-2-3-2-----0-|
G------2---------2-2-----------------2-----|
D--------------------------------------4---|
A------------------------------------------|
E------------------------------------------|

E--------0-2-------0--------------------|
B------------3-------2-3--3-2-3-2-----0-|
G------2-------2-2----------------2-----|
D-----------------------------------4---|
A---------------------------------------|
E---------------------------------------|

E--------0-2-------0-2---------------------|
B------------3---------5/3-3-2-3-2---2-2p0-|
G------2-------2-2-----------------2-------|
D------------------------------------------|
A------------------------------------------|
E------------------------------------------|

E-------0-0---0-----2-0---------------------|
B-----3-----3---0-3-----3-0-2-3-3-2-3-2-2p0-|
G-------------------------------------------|
D-------------------------------------------|
A-------------------------------------------|
E-------------------------------------------|

E------2-3-5-3-5---5-7-7/5-|
B----3-----------3---------|
G--------------------------|
D--------------------------|
A--------------------------|
E--------------------------|

E----5-3-2-0-|
B------------|
G------------|
D------------|
A------------|
E------------|

E------5-3-2-2---|
B----3---------3-|
G----------------|
D----------------|
A----------------|
E----------------|

E------5-5-5-|
B---3--------|
G------------|
D------------|
A------------|
E------------|

E-----5-7-7/5-|
B---3---------|
G-------------|
D-------------|
A-------------|
E-------------|

E--5-3-2-2p0-|
B------------|
G------------|
D------------|
A------------|
E------------|

E---2-3-5-3-2-0---------|
B---------------3-3-2-3-|
G-----------------------|
D-----------------------|
A-----------------------|
E-----------------------|

Then you repeat the whole tab once more then the song over. Enjoy!
Tap to rate this tab
# A B C D E F G H I J K L M N O P Q R S T U V W X Y Z