Song name
# A B C D E F G H I J K L M N O P Q R S T U V W X Y Z

Journey - Dont Stop Believing tab

This is a pretty cool song. please rate. comments to liam.slagle@yahoo.com

Beginning part. play first with PMs then faster and faster.

|----------------|
|--17-16-14-12---|
|----------------|
|----------------|
|----------------|
|----------------|

Buildup to verse...

|-----------------------------------|
|-----------------------------------|
|-----------------------------------|
|-----------------------------------|
|---6-6-6-6-6-6-6-6-7-7-7-7-7-7-7-7-|
|---4-4-4-4-4-4-4-4-5-5-5-5-5-5-5-5-|

Verse
|-------------------------------------------------------------|
|---7----5--------7----9---------7----9---------7----9--------|
|---8----6--------8----10--------8----10--------8----10-------|
|---9----7--------9----11--------9----11--------9----11-------|
|-----0-0--0-0-0-0--0-0---0-0-0-0-----------------------------|
|----------------------------------0-0---0-0-0-0--0-0--0-0-0-0|

End part

|-------------------------------|
|---16----17-----16---17---14---|
|---16----16-----16---17---14---|
|-------------------------------|
|-------------------------------|
|-------------------------------|

Chorus
|------0-----------------------------------------|
|------0-----------------------------------------|
|------------------------------------------------|
|------------------------------------------------|
|--------------2----2-4-6-4----4-6-7---------6-7-|
|---0----0-2-4-----------------------5-----5-----|

Last part of chorus

|------0---------------------------------------------------------|
|------0---------------------------------------------------------|
|----------------------------------------------------------------|
|----------------------------------------------------------------|
|-----------------2------2-4-6---6-6-6-6-6-6-6-6-6-7-7-7-7-7-6-7-|
|---0-------0-2-4----------------4-4-4-4-4-4-4-4-4-5-5-5-5-5-----|

Solo

|---16b--16--14--16b--16---16-17-16-14----------------------|
|--------------------------------------17-16--17-14----14-12|
|-----------------------------------------------------------|
|-----------------------------------------------------------|
|-----------------------------------------------------------|
|-----------------------------------------------------------|

|---16b---16----14-16b----16----14----19--------23b-24|
|----------------------------------17-----------------|
|-----------------------------------------------------|
|-----------------------------------------------------|
|-----------------------------------------------------|
|-----------------------------------------------------|

Repeat chorus. it just fades out after that.
 
Tap to rate this tab
# A B C D E F G H I J K L M N O P Q R S T U V W X Y Z