Song name
# A B C D E F G H I J K L M N O P Q R S T U V W X Y Z

Journey - Dont Stop Believing Acoustic tab

-----------------------------------------------------------------------------
			   DON'T STOP BELIEVIN' - Journey
-----------------------------------------------------------------------------

Song: Don't Stop Believin'
Artist: Journey
Album: Escape
Tabbed by: rd93
Tuning: Standard (EADGBe)

Here's an acoustic tab that has the piano part, chords and a solo. If you're only using 
one guitar, just choose whichever parts you want to play.

Chords:
E 022100
B x24442
C#m x46654
A x02220
Abm 466444
A* 577655
E* x79997

Intro/Verse:
e|-7---7---7---7---7---7---7---7---7---7---7---7---5---5---5---5-----------|
B|-5---5---5---5---7---7---7---7---5---5---5---5---5---5---5---5-----------|
G|---4---4---4---4---4---4---4---4---4---4---4---4---2---2---2---2---------|
D|-------------------------------------------------------------------------|
A|-------------------------------------------------------------------------|
E|-------------------------------------------------------------------------|
 |                                                                         |
e|-----0~--------------2~--------------4~--------------0~------------------|
B|-----0~--------------4~--------------5~--------------2~------------------|
G|---------------------4~--------------6~--------------2~------------------|
D|---------------------4~--------------6~--------------2~------------------|
A|---------------2~----2~----4-6-4~----4~----6-7-0~----0~----6-7-----------|
E|-0~------0-2-4-----------------------------------------------------------|

e|-7---7---7---7---7---7---7---7---7---7---7---7---5---5---5---5-----------|
B|-5---5---5---5---7---7---7---7---4---4---4---4---5---5---5---5-----------|
G|---4---4---4---4---4---4---4---4---4---4---4---4---2---2---2---2---------|
D|-------------------------------------------------------------------------|
A|-------------------------------------------------------------------------|
E|-------------------------------------------------------------------------|
 |                                                                         |
e|-----0~--------------2~--------------4~--------------0~------------------|
B|-----0~--------------4~--------------5~--------------2~------------------|
G|---------------------4~--------------6~--------------2~------------------|
D|---------------------4~--------------6~--------------2~------------------|
A|---------------2~----2~----4-6-4~----4~----6-7-0~----0~----6-7-----------|
E|-0~------0-2-4-----------------------------------------------------------|

or

E         B              C#m              A
  Just a small town girl     living in a lonely world
E               B                  Abm   A*
  She took the midnight train going anywhere

Pre-chorus:
e|-------0---------------0---------------0---------------0-----------------|
B|-7-----5---------7-----9---------7-----9---------7-----9-----------------|
G|-8-----6---------8-----9---------8-----9---------8-----9-----------------|
D|-9-----7---------9-----9---------9-----9---------9-----9-----------------|
A|-0-0-0-0-0-0-0-0-0-0-0-0-0-0-0-0-0-0-0-0-0-0-0-0-0-0-0-0-0-0-0-0---------|
E|-------------------------------------------------------------------------|
  Stran gers      wai-  ting               up     bou levard

or

  B   A    B  E*     B E*                 B    E*
Strangers wai ting       up and down the boulevard
  B   A    B  E*           A
Sha- dows searching in the night


Solo:
e|-16b17~-----16~-----14-16b17~-----16~-------------14-16b17r16-14---------|
B|-----------------------------------------------------------------17-16~--|
G|-------------------------------------------------------------------------|
D|-------------------------------------------------------------------------|
A|-------------------------------------------------------------------------|
E|-------------------------------------------------------------------------|

e|-----------------16b17~-----16~-----14-16b17~-----16~---14-------17b19~--|
B|-17-14~------------------------------------------------------17----------|
G|-----------16-14---------------------------------------------------------|
D|-------------------------------------------------------------------------|
A|-------------------------------------------------------------------------|
E|-------------------------------------------------------------------------|

Chorus (you can also use guitar 2 of the intro here too):

E	      B       C#m                 A
Don't stop believin'      hold on to the feeling
E             B       Abm A*
Streetlights people
Tap to rate this tab
 
# A B C D E F G H I J K L M N O P Q R S T U V W X Y Z