Song name
# A B C D E F G H I J K L M N O P Q R S T U V W X Y Z

Journey - Dont Stop Believing Acoustic tab

-------------------------------------------------------------------------------
                             Don't Stop Believin' - Journey
-------------------------------------------------------------------------------
Tabbed by: ChrisRGuitar
E-mail: chrisrguitar@gmail.com

This is a fingerstyle tab version of Journey's Don't Stop Believin.  If you want to hear 
how the tab sounds you can go to http://youtu.be/bz9gtyJYM2A to see a video performance 
of this version of the song.
I have created nearly 100 other similar fingerstyle arrangements of songs like this, 
that you can email me at the address above to receive them free of charge. :)  Good luck & 
I hope you enjoy!


e|--0-----0-----0-----0-----|-2-----2-----2-----------|
B|-----0-----0-----0--------|-------------------4-----|
G|o----------------------4--|----4-----4-----4-----4--|
D|o-------------------------|-------------------------|
A|-----------------------2--|----------------4--6--4--|
E|--0--------------2--4-----|-------------------------|

e|--------------------0-----|-------------------------|
B|--5-----5-----5--------0--|-2-----2-----2-----2-----|
G|-----4-----4-----4--------|----2-----2-----2-----2--|
D|--------------------------|----------------1--2-----|
A|-----------------6--7--0--|-------------------------|
E|--------------------------|----------------------0--|

e|--0-----0-----0-----0-----|-2-----2-----2-----------|
B|-----0-----0-----0--------|-------------------4-----|
G|-----------------------4--|----4-----4-----4-----4--|
D|--------------------------|-------------------------|
A|-----------------------2--|----------------4--6-----|
E|-----------------2--4-----|----------------------4--|

e|--------------------0-----|-------------------------|
B|--4-----4-----4--------0--|-2-----2-----2-----2-----|
G|-----4-----4-----4--------|----2-----2-----2-----2--|
D|-----------------6--------|----------------1--2-----|
A|-----------------------0--|-------------------------|
E|--------------------4-----|-------------------------|

e|--0-----------------4-----|-2--2-----4--------2-----|
B|-----------0-----------5--|-------------------------|
G|--------1-----------------|-------4--------4-----4--|
D|-----2-----------2--------|-------------------------|
A|--------------------------|-2-----------2-----------|
E|--0-----------0-----------|-------------------------|

e|--------------------------|-7-----7--4--------------|
B|--5-----------5-----5-----|-5--------------7--5-----|
G|--------4--6-----------6--|-6--6-----------------6--|
D|-----6-----------6--------|-------------------------|
A|--4-----------4-----------|-0-----------0-----------|
E|--------------------------|-------------------------|

e|--------------------4-----|-2--2-----4-----2--------|
B|-----------0-----0-----5--|-------4--------------5--|
G|--------1-----------------|-------------------4-----|
D|-----2--------------------|-------------------------|
A|--------------------------|-2-----------2-----------|
E|--0-----------0-----------|-------------------------|

1.|___________________________________________________
e|-----------4--------------|-------------------------|
B|--7-----4-----4--------5--|-------------------------|
G|-----4--------------4-----|----------------2--------|
D|-----------------6--------|----------2-----------2--|
A|--------------------------|----0--------------------|
E|--4-----------------------|-------------------------|

1.|___________________________________________________
e|--0-----------------4-----|-2--2-----4--------2-----|
B|--0--------0-----0-----5--|-4--4-----4--------------|
G|--1-----1-----------------|-4--4--4--4-----4-----4--|
D|-----2--------------------|-------------------------|
A|--------------------------|-2-----------2-----------|
E|--0-----------0-----------|-------------------------|

1.|___________________________________________________
e|--------------------------|-7-----7--4--------------|
B|--5-----------5-----5-----|-5--------------7--5-----|
G|--4-----4--6-----------6--|-6--6-----------------6--|
D|--6--6-----------6--------|-------------------------|
A|--4-----------4-----------|-0-----------0-----------|
E|--------------------------|-------------------------|

1.|___________________________________________________
e|--------------------4-----|-2--2-----4-----2--------|
B|--0--------0-----0-----5--|-------4--------------5--|
G|--------1-----------------|-------------------4-----|
D|-----2--------------------|-------------------------|
A|--------------------------|-2-----------2-----------|
E|--0-----------0-----------|-------------------------|

1.|___________________________________________________
e|-----------4--------------|-------------------------|
B|--7-----4-----4--------5--|-------------------------|
G|-----4--------------4-----|----------------2-------o|
D|-----------------6--------|----------2-----------2-o|
A|--------------------------|----0--------------------|
E|--4-----------------------|-------------------------|

2.|___________________________________________________
e|--------4-----------4-----|--------4-242----0-------|
B|--7--------7-----------7--|-------------------------|
G|--4--------------4--------|------------------------o|
D|-----6--------6-----------|-----2------------------o|
A|--------------------------|-0-----------0-----------|
E|--4-----------------------|-------------------------|

e|--2--------0--------------|-2--------4--------------|
B|--4-----------------------|-4--------4--------------|
G|--4-----------------2-----|-4-----------------------|
D|--------------------2-----|-------------------------|
A|--0--0--0--0--0--0--0--0--|-0--0--0--0--0--0--0--0--|
E|--------------------------|-------------------------|

e|--------------------------|-7-----5--4--------2-----|
B|--4--------5-----5--5--5--|-5-----5--5--------------|
G|--4-----------------------|-------------------------|
D|--4--------6--------------|-------------------------|
A|--------------------------|-------------------------|
E|--0--0--0--0--0--0--0--0--|-0--0--0--0--0--0--0--0--|

e|--2--------0--------------|-2--------4-----2-----0--|
B|--4-----------------------|-4-----------------------|
G|--4-----------------2-----|-4-----------------------|
D|--------------------2-----|-------------------------|
A|--0--0--0--0--0--0--0--0--|-0--0--0--0--0--0--0--0--|
E|--------------------------|-------------------------|

e|--2-----4-----------------|----------0--------------|
B|-----------5--------------|-4--------0--------------|
G|--------------------------|-4-----------------------|
D|--------------------------|-4-----------------------|
A|--------------------------|----7--6-----7-----6--7--|
E|--0--0--0--0--0--0--0--0--|-0--------0-----0--------|

e|--2--------0--------------|-2--------4--------------|
B|--4-----------------------|-4--------4--------------|
G|--4-----------------2-----|-4-----------------------|
D|--------------------2-----|-------------------------|
A|--0--0--0--0--0--0--0--0--|-0--0--0--0--0--0--0--0--|
E|--------------------------|-------------------------|

e|--------------------------|-7-----5--4--------2-----|
B|--4--------5-----5--5--5--|-5-----5--5--------------|
G|--4-----------------------|-------------------------|
D|--4--------6--------------|-------------------------|
A|--------------------------|-------------------------|
E|--0--0--0--0--0--0--0--0--|-0--0--0--0--0--0--0--0--|

e|--2--------0--------------|-2--------4-----2-----0--|
B|--4-----------------------|-4-----------------------|
G|--4-----------------2-----|-4-----------------------|
D|--------------------2-----|-------------------------|
A|--0--0--0--0--0--0--0--0--|-0--0--0--0--0--0--0--0--|
E|--------------------------|-------------------------|

e|--7-----------------------|-------------------------|
B|-----------5--------------|-4--------5--5-----------|
G|-----------4--------------|-4--------4--6-----------|
D|-----------6--------------|-4--------6--7-----------|
A|--------------------------|-------------0-----------|
E|--7--------0--------------|-7--------0--------------|

e|--0-----------------4-----|-2--2-----4--------2-----|
B|-----------0-----------5--|-------------------------|
G|--------1-----------------|-------4--------4-----4--|
D|-----2-----------2--------|-------------------------|
A|--------------------------|-2-----------2-----------|
E|--0-----------0-----------|-------------------------|

e|--------------------------|-7-----7--4--------------|
B|--5-----------5-----5-----|-5--------------7--5-----|
G|--------4--6-----------6--|-6--6-----------------6--|
D|-----6-----------6--------|-------------------------|
A|--4-----------4-----------|-0-----------0-----------|
E|--------------------------|-------------------------|

e|--------------------4-----|-2--2-----4-----2--------|
B|-----------0-----0-----5--|-------4--------------5--|
G|--------1-----------------|-------------------4-----|
D|-----2--------------------|-------------------------|
A|--------------------------|-2-----------2-----------|
E|--0-----------0-----------|-------------------------|

e|--------4-----------4-----|--------4-242----0-------|
B|--7--------7-----------7--|-------------------------|
G|--4--------------4--------|------------------------o|
D|-----6--------6-----------|-----2------------------o|
A|--------------------------|-0-----------0-----------|
E|--4-----------------------|-------------------------|

e|--2--------0--------------|-2--------4--------------|
B|--4-----------------------|-4--------4--------------|
G|--4-----------------2-----|-4-----------------------|
D|--------------------2-----|-------------------------|
A|--0--0--0--0--0--0--0--0--|-0--0--0--0--0--0--0--0--|
E|--------------------------|-------------------------|

e|--------------------------|-7-----5--4--------2-----|
B|--4--------5-----5--5--5--|-5-----5--5--------------|
G|--4-----------------------|-------------------------|
D|--4--------6--------------|-------------------------|
A|--------------------------|-------------------------|
E|--0--0--0--0--0--0--0--0--|-0--0--0--0--0--0--0--0--|

e|--2--------0--------------|-2--------4-----2-----0--|
B|--4-----------------------|-4-----------------------|
G|--4-----------------2-----|-4-----------------------|
D|--------------------2-----|-------------------------|
A|--0--0--0--0--0--0--0--0--|-0--0--0--0--0--0--0--0--|
E|--------------------------|-------------------------|

e|--2-----4-----------------|----------0--------------|
B|-----------5--------------|-4--------0--------------|
G|--------------------------|-4-----------------------|
D|--------------------------|-4-----------------------|
A|--------------------------|----7--6-----7-----6--7--|
E|--0--0--0--0--0--0--0--0--|-0--------0-----0--------|

e|--2--------0--------------|-2--------4--------------|
B|--4-----------------------|-4--------4--------------|
G|--4-----------------2-----|-4-----------------------|
D|--------------------2-----|-------------------------|
A|--0--0--0--0--0--0--0--0--|-0--0--0--0--0--0--0--0--|
E|--------------------------|-------------------------|

e|--------------------------|-7-----5--4--------2-----|
B|--4--------5-----5--5--5--|-5-----5--5--------------|
G|--4-----------------------|-------------------------|
D|--4--------6--------------|-------------------------|
A|--------------------------|-------------------------|
E|--0--0--0--0--0--0--0--0--|-0--0--0--0--0--0--0--0--|

e|--2--------0--------------|-2--------4-----2-----0--|
B|--4-----------------------|-4-----------------------|
G|--4-----------------2-----|-4-----------------------|
D|--------------------2-----|-------------------------|
A|--0--0--0--0--0--0--0--0--|-0--0--0--0--0--0--0--0--|
E|--------------------------|-------------------------|

e|--7-----------------------|-------------------------|
B|-----------5--------------|-4--------5--5-----------|
G|-----------4--------------|-4--------4--6-----------|
D|-----------6--------------|-4--------6--7-----------|
A|--------------------------|-------------0-----0-----|
E|--7--------0--------------|-7--------0--------------|

e|--5--------4-----------2--|-5--------4--------------|
B|--0--------0--------------|-4--------------4-----4--|
G|o-------------------------|-4--------4-----4-----4--|
D|o-------------------------|-------------------------|
A|--------------------------|-2-----2-----2-----2-----|
E|--0-----0-----0-----0-----|-------------------------|

e|--------------5--4--5--7--|-9-----------------------|
B|--5--------5--------------|----12----9--------------|
G|--6-----------------------|----------------11----9--|
D|--6-----------------------|----------11----11----11-|
A|--4-----4-----4-----4-----|-0-----0-----0-----0-----|
E|--------------------------|-------------------------|

e|--5--------4--------------|-5--------4-----2--------|
B|--0--------0-----------0--|-4--------4-----4-----5--|
G|--------------------------|-4--------4-----4-----4--|
D|--------------------------|-------------------------|
A|--------------------------|-2-----2-----2-----2-----|
E|--0-----0-----0-----0-----|-------------------------|

e|--7-----------------------|-------------------------|
B|--5--------5-----5-----5--|-5--------5-----5-----5--|
G|--4--------4--------4-----|-6----------------------o|
D|-----------6-----6-----6--|-7--------7-----7-----7-o|
A|--4-----4-----4-----4-----|-0-----0--0--0--0--0--0--|
E|--------------------------|-------------------------|

e|--5--------4--------------|-5--------4--------------|
B|--0--------------------2--|-0-----------------------|
G|--------------------------|-------------------------|
D|--------------------------|-------------------------|
A|--------------------------|-------------------------|
E|--0-----------------------|-------------------------|
Tap to rate this tab
 
# A B C D E F G H I J K L M N O P Q R S T U V W X Y Z