Song name
# A B C D E F G H I J K L M N O P Q R S T U V W X Y Z

Journey - Faithfully tab

Legend:

b = bend
h = hammer on
p = pull off
r = let note ring
v = vibrato
X2 = play twice
/ = slide up

e------------------------------------------------------------|
B-12r--------------12r--------------12r-------------12-12----|
G----11-9r-8/9-11r----11-9r-8/9-11r-----11-9r-8/9-11---11b---|
D------------------------------------------------------------|
A------------------------------------------------------------|
E------------------------------------------------------------|

e-------------------------------|
B-------------------------------|
G-20vr--------------------------|
D-------------------------------|
A-------------------------------|
E-------------------------------|

e-------------------------------|
B-------------------------------|
G-18b20-18-18b21-18b20b18-16----|
D-------------------------------| X2
A-------------------------------|
E-------------------------------|

e--------------------------------------|
B-----------------------------19b21v---|
G-18b20-18-18b21-18b20b18-16-----------|
D--------------------------------------|
A--------------------------------------|
E--------------------------------------|

e-16-18-18b20-18b20-18-16------------|
B-------------------------19b21b19---|
G------------------------------------|
D------------------------------------|
A------------------------------------|
E------------------------------------|

e-----------------------------------------------------------------------|
B-17-16-17-17b19-17b19vr-17br19b17-16-17-17b19-17b19vr-17b19b17-16-17---|
G-----------------------------------------------------------------------|
D-----------------------------------------------------------------------|
A-----------------------------------------------------------------------|
E-----------------------------------------------------------------------|

e-----------------------------------------------------------------------------------|
B-16p14h16b17-14-16-14-------14-16-14---14------------------------------------------|
G----------------------16b18---------16---16--16-----16-----------------------------|
D-------------------------------------------18--18-16--16-18-16---------------------|
A--------------------------------------------------------------18-16-16b18b16-14v---|
E-----------------------------------------------------------------------------------|

e------------------------------------|
B------------------------------------|
G-------------16-18b19b18-16-18-16---|
D----------16------------------------|
A-14-16/18---------------------------|
E------------------------------------|

e-------19------19------19------19------19------19------19------19---|
B-19b21---21b19---19b21---21b19---19b21---21b19---19b21---21b19------|
G--------------------------------------------------------------------|
D--------------------------------------------------------------------|
A--------------------------------------------------------------------|
E--------------------------------------------------------------------|

e-------19------19------19------19------19------19------19------19---|
B-19b21---21b19---19b21---21b19---19b21---21b19---19b21---21b19------|
G--------------------------------------------------------------------|
D--------------------------------------------------------------------|
A--------------------------------------------------------------------|
E--------------------------------------------------------------------|

e-------19b21b19v-16-19-19-16-19-16-19-19b21-19b21-19b21---|
B-19b21----------------------------------------------------|
G----------------------------------------------------------|
D----------------------------------------------------------|
A----------------------------------------------------------|
E----------------------------------------------------------|

e-19p16---16--------------------|
B------19---19------------------|
G-------------18b19b18-16--16---|
D------------------------18-----|
A-------------------------------|
E-------------------------------|

e--------------------------------------|
B--------------------------------------|
G-18b20-18-18b21-18b20b18-16-----------|
D----------------------------16/18vr---|
A--------------------------------------|
E--------------------------------------|
Tap to rate this tab
# A B C D E F G H I J K L M N O P Q R S T U V W X Y Z