Song name
# A B C D E F G H I J K L M N O P Q R S T U V W X Y Z

Journey - Wildest Dream tab

Journey-Wildest Dream
---------------------

e|-----------------------|
H|-----------------------|
G|-----------------------|
D|--9999-77777777-5555---|   |Em|D|D|C|
A|--7777-55555555-3333---|
E|-----------------------|
 |                       |
e|-----------------------|
H|-----------------------|
G|-----7-9---7-9---7-9---|
D|--99-----9-----9-------|
A|-----------------------|
E|-----------------------|

e|------------------------------------|
H|------------------------------------|
G|------------------------------------|    
D|--99-9-9-9----------77-7-7-7-55-----|   |Em|G|D|C Am|
A|--77-7-7-7-55-5-5-5-55-5-5-5-33-77--|
E|-----------33-3-3-3-------------55--|



e|--------------------------------|
H|--------------------------------|
G|--------------------------------|
D|--------------------------------|  |G|
A|-55555--------------------------|
E|-33333...-----------------------|
 |                                |
 |                                |
 |                                |
e|------------7-------------------|
H|-------/6-5-------/6-5--6-8-6-5-|
G|--/7-6-------/7-6---------------|
D|--------------------------------|
A|--------------------------------|
E|--------------------------------|




e|---------------------|
H|---------------------|
G|---------------------|
D|--99999999-7777-4444-|  |Em|Em|D|H|
A|--77777777-5555-2222-|
E|---------------------|

e|----------------------|
H|-12...----12...--4444-|
G|-99999999-7777---4444-|
D|----------------------|
A|----------------------|
E|----------------------|


Solo:

e|----------|
H|----------|
G|----------|
D|----------|  |A|
A|-77777----|
E|-55555...-|



e|----------|
H|----------|
G|----------|
D|----------|  |G|
A|-55555----|
E|-33333...-|


e|----------|
H|----------|
G|----------|  |A|
D|----------|
A|-77777----|
E|-55555...-|



Z End:
e|----|
H|----|
G|----|
D|----|
A|-7--|
E|-5--|

Tap to rate this tab
# A B C D E F G H I J K L M N O P Q R S T U V W X Y Z