Song name
# A B C D E F G H I J K L M N O P Q R S T U V W X Y Z

Journey - Lights tab

-------------------------------------------------------------------------------
			     Song: Lights
                             Artist: Journey
                             Album: Infinity
                             Year: 1978
-------------------------------------------------------------------------------
Tabbed by: Sam1514

Tuning: Standard (eBGDAE)
                                 Intro
e|---------------------------------------------------------------------------|
B|-----------7----7-----------------------------------7---7------------------|
G|-----7-----7h9--7--------------7h9p7----------------7h9-7------------------|
D|--------7---------9---------9--------9---------------------9---------------|
A|-7/9---------------------9-------------9---7/9--9--------------------------|
E|----------------------7----------------------------------------------------|

e|---------------------------------------------------------------------------|
B|-------2h3p2--------------3h5p3-------------5h6p5--------------------------|
G|-----2-------2---------4--------4---------5-------5------------7-----------|
D|---2-----------2-----4------------4-----5-----------5--------7-------------|
A|-2-----------------2------------------3------------------7/9---------------|
E|---------------------------------------------------------------------------|



************************************

| /   slide up
| \   slide down
| h   hammer-on
| p   pull-off
| ~   vibrato
| +   harmonic
| x   Mute note
| b   Bend
| pb  Pre-bend
| br  Bend release
| pbr Pre-bend release
| brb Bend release bend

************************************
Tap to rate this tab
# A B C D E F G H I J K L M N O P Q R S T U V W X Y Z