Song name
# A B C D E F G H I J K L M N O P Q R S T U V W X Y Z

Journey - Whos Cryin Know tab

E|---15--15--15--15------15--15--15--15-------15--15--15--------------------|
B|-17--15--------------17--15---------------17--15--------------------------|
G|---------17--16--------------17--16---------------17--16-14-17trill16-----|
D|--------------------------------------------------------------------------|
A|--------------------------------------------------------------------------|
E|--------------------------------------------------------------------------|



E|---15--15--15-17-----15--15--15-17-----15--15--15-------------------------|
B|-17--15------------17--15------------17--15-------------------------------|
G|---------17----------------17----------------17--16-14--17trill16---------|
D|--------------------------------------------------------------------------|
A|--------------------------------------------------------------------------|
E|--------------------------------------------------------------------------|


E|--------------------------------------------------------------------------|
B|--------------------------------------------------------------------------|
G|-12-14-14-14----14-12------------------------------------14-16-14----14---|
D|----------------------12----12-14-------------12---14-17----------17------|
A|-------------------------15-------15-12---15------------------------------|
E|--------------------------------------------------------------------------|


E|-------------------------17----19-19----20--15-17-17-15-17-19-17-15-17-19-|
B|-------15-17-15-------17----17--------------------------------------------|
G|-16-17----------17-14-----------------------------------------------------|
D|--------------------------------------------------------------------------|
A|--------------------------------------------------------------------------|
E|--------------------------------------------------------------------------|


E|-17-15----------15-17-17-15-17-20-15-17-17-15-----------------------------|
B|-------17-------------------------------------17-17-----15-17-18-17-15-15-|
G|--------------------------------------------------------------------------|
D|--------------------------------------------------------------------------|
A|--------------------------------------------------------------------------|
E|--------------------------------------------------------------------------|


E|------------------------------------------------------15--15--15--15------|
B|-15-17-15-------------------------------------------17--15----------------|
G|----------17-16-14-16----17-16-14----14-16------------------17--16--------|
D|----------------------17----------17-------14-14--------------------------|
A|--------------------------------------------------------------------------|
E|--------------------------------------------------------------------------|


E|---15--15--17-15-----------15--15--15-------------------------------------|
B|-17--15-----------18-----17--15-------------------------------------------|
G|---------17----------------------17---16-14--17trill16--------------------|
D|--------------------------------------------------------------------------|
A|--------------------------------------------------------------------------|
E|--------------------------------------------------------------------------|

E|---15--15--15--15------15--15--15--15-----|
B|-17--15--------------17--15---------------|
G|---------17--16--------------17--16-------|	to fade
D|------------------------------------------|
A|------------------------------------------|
E|------------------------------------------|




Key:

E|------------------|
B|------------------|
G|---17trill16------|  	Alternate between the first note(17) and the
D|------------------|  	second(16). Use a hammer-on technique when
A|------------------|  	playing the 17.
E|------------------|

this is 100% correct
Tap to rate this tab
# A B C D E F G H I J K L M N O P Q R S T U V W X Y Z