Song name
# A B C D E F G H I J K L M N O P Q R S T U V W X Y Z

Jovanotti - Mi Fido Di Te tab

-------------------------------------------------------------------------------
			     Mi Fido Di Te - Jovanotti
-------------------------------------------------------------------------------
Tabbed by: Bank'O_Matt
Email: deimos86@gmail.com

Tuning: Standard


Intro:

Guitar 1* (repeat all over the song):

e|-----------------------------------------------------|
B|---1-0--------1-0-------1-0----------1-0-------------|
G|-------2--------------------0------------0-----------|
D|------------------3----------------------------------|
A|-----------------------------------------------------|
E|-----------------------------------------------------|

Bass* (repeat all over the song):

G|----------4-5---------4-5---------4-5---------4------|
D|------------------------------------------------5----|
A|-----------------------------------------------------|
E|-----------------------------------------------------|

Guitar 2 (starts playing on the 3rd note of Guitar 1):

Am F C G


Verse:

Am
Case di pane, riunioni di rane
F
vecchie che ballano nelle cadillac
C
muscoli d'oro, corone d'alloro
G
canzoni d'amore per bimbi col frack
Am
musica seria, luce che varia
F
pioggia che cade, vita che scorre
C
cani randagi, cammelli e re magi

Chorus:

Guitar 1: when guitar2 plays C chord, guitar 1 plays

E-------------|
B-------------|
G--5-4-0------|
D-------------|
A-------------|
E-------------|

Bass:

G-------------|
D----------2--|
A--------3----|
E-------------|

Then Guitar 1 plays as before

Guitar 2:

G                          C
forse fa male eppure mi va
              F
di stare collegato
                  C
di vivere di un fiato
                  G
di stendermi sopra al burrone
             Am
di guardare giù
              F
la vertigine non è
            C
paura di cadere
                G
ma voglia di volare

    C
mi fido di te
    F
mi fido di te
    C          G
mi fido di te
    Am
mi fido di te
       F
io mi fido di te
        C
ehi mi fido di te
                   G
cosa sei disposto a perdere


Verse 2:

(As verse 1)

Lampi di luce, al collo una croce
la dea dell'amore si muove nei jeans
culi e catene, assassini per bene
la radio si accende su un pezzo funky
teste fasciate, ferite curate
l'affitto del sole si paga in anticipo prego
arcobaleno, più per meno meno

Chorus 2:

(as chorus 1:)


(same chords as in verses here)

mi fido di te {x3}
cosa sei disposto a perdere
mi fido di te {x2}
io mi fido di te
cosa sei disposto a perdere

Verse 3:

rabbia stupore la parte l'attore
dottore che sintomi ha la felicità
evoluzione il cielo in prigione
questa non è un'esercitazione
forza e coraggio
la sete il miraggio
la luna nell'altra metà
lupi in agguato il peggio è passato

Chorus:

(same as chorus 1)

*:Note that you can play both guitar1 and bass line at the same time on a guitar.
  It goes like this:

e|-----------------------------------------------------|
B|---1-0----------1-0---------1-0----------1-0---------|
G|-------2------------------------0------------0-------|
D|--------------------3--------------------------------|
A|----------2-3----------2-3---------2-3----------2----|
E|--------------------------------------------------3--|
Tap to rate this tab
# A B C D E F G H I J K L M N O P Q R S T U V W X Y Z