Song name
# A B C D E F G H I J K L M N O P Q R S T U V W X Y Z

Jovink En De Voederbietels - Wakker Worden tab

Help us improve GuitareTab! Take a short survey!
Jovink - Wakker worden!
Made By: LudjeW



Intro (Bass):
G|--------------------------------------------------|
D|--------------------------------------------------|
A|--------------------------------------------------|
E|---\5-5-0-3-3-0-3-0-------------------------------|



Couplet
e|--------------------------------------------------|
B|--------------------------------------------------|
G|--------------------------------------------------|
D|--7--5-5--7-7-------------------------------------|
A|--7--5-5--7-7-------4X----------------------------|
E|--5--3-3--5-5-------------------------------------|


e|--------------------------------------------------|
B|--------------------------------------------------|
G|----------7-7-------------------------------------|
D|--7--5-5--7-7-------1X----------------------------|
A|--7--5-5--5-5-------------------------------------|
E|--5--3-3------------------------------------------|



Refrein
e|--------------------------------------------------|
B|--------------------------------------------------|
G|------------7-7-----------------------------------|
D|--7-7--5-5--7-7------------------3X---------------|
A|--7-7--5-5--5-5-----------------------------------|
E|--5-5--3-3---------0-2-2-3-4----------------------|

e|--------------------------------------------------|
B|--------------------------------------------------|
G|------------7-7-----------------------------------|
D|--7-7--5-5--7-7--------1X-------------------------|
A|--7-7--5-5--5-5-----------------------------------|
E|--5-5--3-3----------------------------------------|






Couplet
e|--------------------------------------------------|
B|--------------------------------------------------|
G|--------------------------------------------------|
D|--7--5-5--7-7-------------------------------------|
A|--7--5-5--7-7-------4X----------------------------|
E|--5--3-3--5-5-------------------------------------|



e|--------------------------------------------------|
B|--------------------------------------------------|
G|----------7-7-------------------------------------|
D|--7--5-5--7-7-------1X----------------------------|
A|--7--5-5--5-5-------------------------------------|
E|--5--3-3------------------------------------------|


Refrein
e|--------------------------------------------------|
B|--------------------------------------------------|
G|------------7-7-----------------------------------|
D|--7-7--5-5--7-7------------------3X---------------|
A|--7-7--5-5--5-5-----------------------------------|
E|--5-5--3-3---------0-2-2-3-4----------------------|

e|--------------------------------------------------|
B|--------------------------------------------------|
G|------------7-7-----------------------------------|
D|--7-7--5-5--7-7--------1X-------------------------|
A|--7-7--5-5--5-5-----------------------------------|
E|--5-5--3-3----------------------------------------|



Solo:
Guitar 1
e|--------------------------------------------------|
B|--------------------------------------------------|
G|--------------------------------------------------|
D|--5------------3X---------------------------------|
A|----3---------------------------------------------|
E|------3-4-5---------------------------------------|

Guitar 2
e|--------------------------------------------------|
B|------------------------7~-7~---------------------|
G|------------------------7~-7~---------------------|
D|------------------------------5---5----------3X---|
A|--------------------------------7-----------------|
E|--------------------------------------------------|

Guitar 1
e|--------------------------------------------------|
B|--------------------------------------------------|
G|----------------------------5---------------------|
D|--5-----------------------5---7----(hier de solo)-|
A|----3---------------3-5-7------------(4 maten)----|
E|------3-4-5--3-4-5--------------------------------|

Guitar 2 (Playing with the solo)
e|--------------------------------------------------|
B|--------------------------------------------------|
G|------------7-7-----------------------------------|
D|--7-7--5-5--7-7------------------3X---------------|
A|--7-7--5-5--5-5-----------------------------------|
E|--5-5--3-3---------0-2-2-3-4----------------------|




e|--------------------------------------------------|
B|--------------------------------------------------|
G|------------7-7-----------------------------------|
D|--7-7--5-5--7-7------1X---------------------------|
A|--7-7--5-5--5-5-----------------------------------|
E|--5-5--3-3----------------------------------------|



(Bass)
G|--------------------------------------------------|
D|--------------------------------------------------|
A|-----------------------8X-------------------------|
E|---\5-5-0-3-3-0-3-0-------------------------------|


Guitar (8e maat)

e|--------------------------------------------------|
B|--------------------------------------------------|
G|--------------------------------------------------|
D|--7-7-5-----------------------------------|
A|--------7-6-5---------------------------|
E|--------------8-------------------------|


Refrein

e|--------------------------------------------------|
B|--------------------------------------------------|
G|------------7-7-----------------------------------|
D|--7-7--5-5--7-7------------------7X---------------|
A|--7-7--5-5--5-5-----------------------------------|
E|--5-5--3-3---------0-2-2-3-4----------------------|

e|--------------------------------------------------|
B|--------------------------------------------------|
G|--------------------------------------------------|
D|--7-7--5-5---------7-7-5-----------7--------------|
A|--7-7--5-5---------------7-6-5-----7--------------|
E|--5-5--3-3---------------------8---5--------------|


Related for Wakker Worden tab