Song name
# A B C D E F G H I J K L M N O P Q R S T U V W X Y Z

Jovit Baldivino - Too Much Love Will Kill You tab

e---------------------------15s17-15-14-12-14-15-17-19-------------e
B--------------------------------------------------------17-17~----B
G-14b---14b-14-14-12-14b~------------------------------------------G
D------------------------------------------------------------------D
A------------------------------------------------------------------A
E------------------------------------------------------------------E


e-20-19-17s19--17-----17-15-17s19-------19-17-17h20-17----------------------e
B-----------------------------------------------------20--17h20-17----------B
G------------------------------------------------------------------19b~-----G
D---------------------------------------------------------------------------D
A---------------------------------------------------------------------------A
E---------------------------------------------------------------------------E

e---------------------------------------e
B-----------------------15b-15--15b~~---B
G--------12-14b-14b-14------------------G
D--12-14--------------------------------D
A---------------------------------------A
E---------------------------------------E


Tap to rate this tab
# A B C D E F G H I J K L M N O P Q R S T U V W X Y Z