Song name
# A B C D E F G H I J K L M N O P Q R S T U V W X Y Z

Joy Denalane - Setho Live tab

Help us improve GuitareTab! Take a short survey!
Artist: Joy Denalane
Titel: Setho
Album: Mamani Live
Web: http://www.joydenalane.com/

From the incredible acoustic live set, pretty simple repeating pattern

Tuning: Standard



Guitar 1:

|-----5---5----------------3---3----------|
|----7------x--7---7------5------x-3---5--|
|---7---7---x-----7------5---5---x----5---|
|--7--------x----7------5--------x---5----| repeat
|-----------------------------------------|
|-----------------------------------------|



Guitar 2:

|----5-5--5-3--------------3-3---3p2p0----|
|-----------------------------------------|
|-----------------------------------------|
|-----------------------------------------| 
|-----------------------------------------|
|-----------------------------------------|


x= slap
p= pull off
Related for Setho Live tab