Song name
# A B C D E F G H I J K L M N O P Q R S T U V W X Y Z

Joy Division - Something Must Break Now tab

Tuning: standard

Intro

G----------------------------------------------------------|
D----------------------------------------------------------|
A--------------------------------------7-------------------|slide-up-and-down
E-88888888-7777777-88888888-77-5555555---------------------|

Verse 1&2

G---------------------------|
D---------------------------|
A---------------------------|
E-1212121212121212-55555555-|

chorus

G----------------------------------------------------------|
D----------------------------------------------------------|
A--------------------------------------7-------------------|slide-up-and-down
E-88888888-7777777-88888888-77-5555555---------------------|

solo

G----------------------------------------------------------------------|
D----------------------------------------------------------------------|
A------------------------------------------------------17---17---------|
E-12(16X)0-12(16X)-17-15-17-15--12(16X)0-12(16X)--17-19---19--19-17-19-|

G--------------------|
D--------------------|
A--------12-00-12-00-|
E-12(16X)------------|

Verse 3

G-----------------------------------------------------|
D-----------------------------------------------------|
A------------------00000000------------------00000000-|
E-1212121212121212----------1212121212121212----------|

chorus

G----------------------------------------------------------|
D----------------------------------------------------------|
A--------------------------------------7-------------------|slide-up-and-down
E-88888888-7777777-88888888-77-5555555---------------------|


Please leave comments or corrections
Tap to rate this tab
 
# A B C D E F G H I J K L M N O P Q R S T U V W X Y Z