Guitaretab - guitar tabs
Song name
# A B C D E F G H I J K L M N O P Q R S T U V W X Y Z

Joy Division - Something Must Break tab

Intro

e------------------------------------------------------------|
B------------------------------------------------------------|
G----1111111111111--12121212--111111111--9999999-------------|
D------------------------------------------------------------|
A------------------------------------------------------------|
E------------------------------------------------------------|

e------------------------------------------------------------|
B------------------------------------------------------------|
G----1111111111111--12121212--1414141414--1616161616---------|
D------------------------------------------------------------|
A------------------------------------------------------------|
E------------------------------------------------------------|

e------------------------------------------------------------|
B---12-12--------------------12-12---------------------------|
G---------111111111-9999999--------11------------------------|
D------------------------------------------------------------|
A------------------------------------------------------------|
E------------------------------------------------------------|

Verso
[ Tab from: http://www.guitaretab.com/j/joy-division/117484.html ]
e------------------------------------------------------------|
B---12-12--------------------12-12---------------------------|
G---------111111111-9999999--------11------------------------|
D------------------------------------------------------------|
A------------------------------------------------------------|
E------------------------------------------------------------|

Bm is played 2 times very Fast

Bm  Fm                 Em
         two ways to choose
Bm  Fm              Gm
          on a razors edge
          remain behind
          go straight ahead.

Bm  Fm                   Gm
          room full of people,
Bm  Fm               Em
         room for just one
Bm  Fm                       Gm
         if i can't break out now,
Am                     Bm
the time just wont come.

Bm  Fm  Em
Bm  Fm - Gm

two ways to choose
which way to go
decide for me
please let me know

looked in the mirror
saw i was wrong
if i could get back to
where i belong, where i belong

Fm  Fm - Fm...(??)

two ways to choose
which way to go
had thoughts for one
designs for both

if we were immortal,
we were not there
washed up on the beaches,
struggling for air

Bm  Fm  Em

Bm   Fm            Fm            Fm       Gm Fm   Em
         i see you face still in my window
Em                              Fm      Gm Fm   Em
torments yet calms, wont set me free
Gm
    something must break now
Fm                         Em
     this life isnt mine
Gm
     something must break now
Am                     Bm
     wait for the time
                     Bm
something must break
Related for Something Must Break tab