Song name
# A B C D E F G H I J K L M N O P Q R S T U V W X Y Z

Joy Division - No Love Lost tab

-------------------------------------------------------------------------------
			     NO LOVE LOST - Joy Division
-------------------------------------------------------------------------------
Tabbed by: sattelitecity
Email: batchie_says_let_there_be_rock@hotmail.com

Tuning: standard
-

The open chords in the intro can be and I suspect were played as barre chords by Sumner 
his sound is best replicated on my guitar when they're played as open chords. Any 
or corrections would be greatly appreciated. :)

p.s. This is one of my first tabs so please go easy.

Intro(.28):
                 .                .                .
e|------------------------------------------------------0----------0--5\---|
B|------------------------------------------------------2----------2--5\---|
G|-2-2-2-2-2~--0----2-2-2-2-2~--0----2-2-2-2-2~--0----2-2----2-2-2-2--6\---|
D|---------------2----------------2----------------2--2-2----2-2-2-2--7\---|
A|----------------------------------------------------0-0----0-0-0-0--7\---|
E|--------------------------------------------------------------------5\---|

e|-------------------------------------------------------------------------|
B|-------------------------------------------------------------------------|
G|-------------------------------------------------------------------------|
D|-------------------------------------------------------------------------|
A|-0-0-0-0--0-0-0-0--0-0-0-0--0-0--0-0-0-0--0-0-0-0--0-0-0-0--0-0-0-0------|
E|-------------------------------------------------------------------------|

e|-------3\----0----0----3----0--5\----------------------------------------|
B|-------3\----2----2----0----2--5\----------------------------------------|
G|-------4\--2-2--2-2--0-0--2-2--6\----------------------------------------|
D|-------5\--2-2--2-2--0-0--2-2--7\----------------------------------------|
A|-0-0-0-5\--0-0--0-0--2-2--0-0--7\----------------------------------------|
E|-------3\--------------3-------5\----------------------------------------|

                 .                .                .
e|------------------------------------------------------0----------0--5\---|
B|------------------------------------------------------2----------2--5\---|
G|-2-2-2-2-2~--0----2-2-2-2-2~--0----2-2-2-2-2~--0----2-2----2-2-2-2--6\---|
D|---------------2----------------2----------------2--2-2----2-2-2-2--7\---|
A|----------------------------------------------------0-0----0-0-0-0--7\---|
E|--------------------------------------------------------------------5\---|

e|-------------------------------------------------------------------------|
B|-------------------------------------------------------------------------|
G|-------------------------------------------------------------------------|
D|-------------------------------------------------------------------------|
A|-0-0-0-0--0-0-0-0--0-0-0-0--0-0-0-0--0-0-0-0--0-0-0-0--0-0-0-0--0-0-0-0--|
E|-------------------------------------------------------------------------|

e|------------------------------------------------0----0----3----0---------|
B|------------------------------------------------2----2----0----2---------|
G|----------------------------------------------2-2--2-2--0-0--2-2---------|
D|----------------------------------------------2-2--2-2--0-0--2-2---------|
A|-0-0-0-0--0-0-0-0--0-0-0-0--0-0-0-0--0-0-0-0--0-0--0-0--2-2--0-0---------|
E|----------------------------------------------------------3--------------|


Verse(1.52):
               . .
e|-5--0-3-5--5-5-5--|
B|-5--0-3-5--5-5-5--|
G|-6--1-4-6--6-6-6--| Repeats all thoughout verse.
D|-7--2-5-7--7-7-7--|
A|-7--2-5-7--7-7-7--|
E|-5--0-3-5--5-5-5--|

So long sitting here, didnít hear the warning,
waiting for the tape to run.
Weíve been moving around in different situations,
knowing that the time would come.
Just to see you torn apart, witness to your empty heart.
I need it, I need it, I need it.


Chorus(2.28):

e|-5---5-7-7/8--8--5---5-7-7/8--10-10---7-7/8--5-5-------------------------|
B|-5---5-7-7/8--8--5---5-7-7/8--10-10---7-7/8--5-5-------------------------|
G|-6---6-8-8/9--9--6---6-8-8/9--11-11---8-8/9--6-6-------------------------|
D|-7---7-9-9/10-10-7---7-9-9/10-12-12---9-9/10-7-7-------------------------|
A|-7---7-9-9/10-10-7---7-9-9/10-12-12---9-9/10-7-7-------------------------|
E|-5---5-7-7/8--8--5---5-7-7/8--10-10---7-7/8--5-5-------------------------|
Twice.

Through the wire screen,
the eyes of those standing outside,
looked in at her as into the cage of some rare creature in a zoo.
In the hand of one of the assistants,
she saw the same instrument which they had,
that morning, inserted deep into her body.
She shuddered instinctively.
No life at all in the house of dolls.
*delay applied*
No (no) love (love) lost (lost).
No (no) love (love) lost (lost).


Verse(3.00):
               . .
e|-5--0-3-5--5-5-5--|
B|-5--0-3-5--5-5-5--|
G|-6--1-4-6--6-6-6--| Repeats all thoughout verse.
D|-7--2-5-7--7-7-7--|
A|-7--2-5-7--7-7-7--|
E|-5--0-3-5--5-5-5--|

Youíve been seeing things, in darkness, not in learning,
hoping that the truth will pass.
No life underground, wasting never changing,
wishing that this day wonít last.
To never see you show your age, to watch until the beauty fades.
I need it, I need it, I need it.

Ends with:

e|--5\-----------------------------------------|
B|--5\-----------------------------------------|
G|--6\-----------------------------------------|
D|--7\-----------------------------------------|
A|--7\-----------------------------------------|
E|--5\-----------------------------------------|

| .  staccato (shortened note)
| /  slide up
| \  slide down
| h  hammer-on
| p  pull-off
| ~  vibrato
| +  harmonic
| x  Mute note
===============================================================================
Tap to rate this tab
# A B C D E F G H I J K L M N O P Q R S T U V W X Y Z