Song name
# A B C D E F G H I J K L M N O P Q R S T U V W X Y Z

Joy Division - Digital tab

Joy Division - Digital
Tabbed by Eren OGRUL

Listen song for correct timing. And use brit tones.
* Palm Mute

[00:06 - 00:11]
e|------------------------------------------------|
B|------------------------------------------------|
G|------------------------------------------------|
D|------------------------------------------------|
A|-5-4-----4-5-4-5-4---4----5-4-----4-5-4-5-7-----|
E|-----5-5-----------5----------5-5---------------|

[00:12 - 00:53]
e|---------------------  |-------------------|
B|---------------------  |-------------------|
G|---------------------x2|-7-7-6-7-6---6-7---| x2
D|-7-7-6-7-6---6-7-----  |-----------7-------|
A|-----------7---------  |-------------------|
E|---------------------  |-------------------|
   * * * * * * * *        * * * * * * * *

[00:54 - 01:04]
e|------------------|
B|------------------|
G|7-7-----7-7-------|
D|7-7-7-7-7-7-7-7-7-|
A|5-5-7-7-5-5-7-7-7-|
E|----5-5-----5-5-5-|

[01:09 - 01:36]
e|---------------------  |-------------------|
B|---------------------  |-------------------|
G|---------------------x2|-7-7-6-7-6---6-7---| x2
D|-7-7-6-7-6---6-7-----  |-----------7-------|
A|-----------7---------  |-------------------|
E|---------------------  |-------------------|
   * * * * * * * *        * * * * * * * * (second time don't make palm mute)

[01:51 - 02:01]
e|---------------------------------------|
B|---------------------------------------|
G|---------------------------------------|
D|---------------------------------------|
A|-7-7-7-4-5-7-7-7--4-5-7-7-7-4-5-5-4-0--|
E|---------------------------------------|

[02:02 - 02:10]
e|----------------------------------|
B|----------------------------------|
G|----------------------------------|
D|----------------------------------|
A|-5-5-5-5-5-4-4-4-4-2-2-2-2-0-0-0--|
E|----------------------------------|

[02:13 - 02:28]
e|------------------|
B|------------------|
G|------------------|
D|-7-7-7-7-7-7-7-7--|
A|------------------|
E|------------------|
   * * * * * * * *

[02:33 - 02:40]
e|------------------|
B|------------------|
G|7-7-----7-7-------|
D|7-7-7-7-7-7-7-7-7-|
A|5-5-7-7-5-5-7-7-7-|
E|----5-5-----5-5-5-|

[02:40 - 02:50]
e|----------------|
B|----------------|
G|----------------|
D|-7-7--7-7--7-7--|
A|----------------|
E|----------------|
   * *  * *  * *
Tap to rate this tab
# A B C D E F G H I J K L M N O P Q R S T U V W X Y Z