Song name
# A B C D E F G H I J K L M N O P Q R S T U V W X Y Z

Joy Division - Heart And Soul tab

Band: Joy Division
Song: Heart And Soul
Album: Closer

Tabbed by Eren OGRUL
Easy to play but amazing song. Kills me when listening.

Bass Intro
G|--------------------|
D|-0-0-3-0--0-0-3-0-5-|x16
A|--------------------|
E|--------------------|


e|--------------|
B|--------------|
G|--------------|x24
D|-3-3-3-0-0-0--|
A|--------------|
E|--------------|

e|----------------------------------------------------|
B|----------------------------------------------------|
G|----------------------------------------------------| x2
D|-5-5-3-5-3-0-0-0--5-5-3-5-3-0-0-0-5-5-3-----3-0-0-0-|
A|----------------------------------------5-3---------|
E|----------------------------------------------------|

e|------------|
B|------------|
G|------------|
D|3-3-3-0-0-0-|
A|------------|
E|------------|

e|-1-1-1-0-0-0-|
B|-3-3-3-3-3-3-|
G|-2-2-2-2-2-2-| x8
D|-0-0-0-0-0-0-|
A|-x-x-x-x-x-x-|
E|-x-x-x-x-x-x-|

e|-1-1-1-1-1-1-|
B|-3-3-3-3-3-3-|
G|-2-2-2-2-2-2-|
D|-0-0-0-0-0-0-|
A|-x-x-x-x-x-x-|
E|-x-x-x-x-x-x-|


e|-1-1-1-0-0-0-|
B|-3-3-3-3-3-3-|
G|-2-2-2-2-2-2-| x5
D|-0-0-0-0-0-0-|
A|-x-x-x-x-x-x-|
E|-x-x-x-x-x-x-|

e|-1-1-1--1-|
B|-3-3-3--3-|
G|-2-2-2--2-|
D|-0-0-0--0-|
A|-x-x-x--x-|
E|-x-x-x--x-|

Whole song like this. Listen carefully.
Tap to rate this tab
 
# A B C D E F G H I J K L M N O P Q R S T U V W X Y Z