Guitaretab - guitar tabs
Song name
# A B C D E F G H I J K L M N O P Q R S T U V W X Y Z

Joy Division - Atmosphere tab

-------------------------------------------------------------------------------
			     ATMOSPHERE - Joy Division
-------------------------------------------------------------------------------
Tabbed by: sattelitecity
Email: batchie_says_let_there_be_rock@hotmail.com

This is the synth played by Sumner transposed for guitar in case, like me, you have no
player in your band, although there is actually some guitar towards the end. Also some of
synth part on the recording may sound like it changes note where I have no note change, 
that's just a change in the fx level, and lastly, the most of the single notes at the
of the verse are held for two bars. Any comments or corrections would be greatly 
:)

p.s. This is one of my first tabs so please go easy.

Tuning: standard
-

Verse 1 (1.14):
e|-------------------------------------------------------------------------|
B|-3h5-3h5-3---3h5-3h5-3---3h5-3h5-3---3h5-3h5-3---3h5-3h5-3---3h5-3h5-3---|
G|-------------------------------------------------------------------------|
D|-------------------------------------------------------------------------|
A|-------------------------------------------------------------------------|
E|-------------------------------------------------------------------------|

e|-------------------------------------------------------------------------|
B|-3h5-3h5-3---3h5/8-6-5-----6---6-----------------------------------------|
G|-------------------------5---5---5---------------------------------------|
D|-----------------------------------3---3---3---5---3---------------------|
A|-------------------------------------3---3-------------------------------|
E|-------------------------------------------------------------------------|


Verse 2 (2.18):
e|-------------------------------------------------------------------------|
B|-3h5-3h5-3---3h5-3h5-3---3h5-3h5-3---3h5-3h5-3---3h5-3h5-3---3h5-3h5-3---|
G|-------------------------------------------------------------------------|
D|-------------------------------------------------------------------------|
A|-------------------------------------------------------------------------|
E|-------------------------------------------------------------------------|
[ Tab from: http://www.guitaretab.com/j/joy-division/163105.html ]
e|-------------------------------------------------------------------------|
B|-3h5-3h5-3---3h5/8-6-5-----8-6-5---6-------------------------------------|
G|-------------------------5-------5---5-----------------------------------|
D|---------------------------------------3-----3---3-----------------------|
A|-----------------------------------------3-3---3---3---------------------|
E|-----------------------------------------------------1-------------------|


Outro (3.21):

When there are three chords together, they should be played in quick succesion.

Guitar:
e|-3-------------------1-1-1-------------------3-3-3-----------------------|
B|-5-------------------1-1-1-------------------5-5-5-----------------------|
G|-5-------------------2-2-2-------------------5-5-5-----------------------|
D|-5-------------------3-3-3-------------------5-5-5-----------------------|
A|-3-------------------3-3-3-------------------3-3-3-----------------------|
E|-3-------------------1-1-1-------------------3-3-3-----------------------|

Synth:
e|-------------------------------------------------------------------------|
B|-3h5-3h5-3---3h5-3h5-3---3h5-3h5-3---3h5-3h5-3---3h5-3h5-3---3h5-3h5-3---|
G|-------------------------------------------------------------------------|
D|-------------------------------------------------------------------------|
A|-------------------------------------------------------------------------|
E|-------------------------------------------------------------------------|

Guitar:
e|-1-1-1-------------------3-3-3----1-1-1----3-3-3----1-1-1--1-------------|
B|-1-1-1-------------------5-5-5----1-1-1----5-5-5----1-1-1--1-------------|
G|-2-2-2-------------------5-5-5----2-2-2----5-5-5----2-2-2--2-------------|
D|-3-3-3-------------------5-5-5----3-3-3----5-5-5----3-3-3--3-------------|
A|-3-3-3-------------------3-3-3----3-3-3----3-3-3----3-3-3--3-------------|
E|-1-1-1-------------------3-3-3----1-1-1----3-3-3----1-1-1--1-------------|

Synth:
e|-------------------------------------------------------------------------|
B|-----3h5-3h5-3---3h5-3h5-3-----8-6-5----8-6-5----8-6-5-------------------|
G|-----------------------------5--------5--------5--------5----------------|
D|-----------------------------------------------------------3-------------|
A|-------------------------------------------------------------3-----------|
E|---------------------------------------------------------------1---------|


| /  slide up
| \  slide down
| h  hammer-on
| p  pull-off
| ~  vibrato
| +  harmonic
| x  Mute note
===============================================================================
Related for Atmosphere tab
×
Atmosphere