Song name
# A B C D E F G H I J K L M N O P Q R S T U V W X Y Z

Joy Division - Shes Lost Control tab

-----------------------------------------------------------------------------                       
SHE'S LOST CONTROL - Joy Division
-----------------------------------------------------------------------------

Tabbed by: Danish Hadi
Email:goldprince07@hotmail.com

Tuning: Standard

I did this tab by ear and watching a lot of Joy Division's videos.
This version I'm tabbing is the John Peel Sessions version.

Riff 1 - At about 0:54 - 2:29
e|33-555-666-8--8--8--10---------33-555-666-8--8--8--5----------------------|
B|33-555-666-8--8--8--10---------33-555-666-8--8--8--5----------------------|
G|44-666-777-9--9--9--11---------44-666-777-9--9--9--6----------------------|
D|55-777-888-10-10-10-12---------55-777-888-10-10-10-7----------------------|
A|55-777-888-10-10-10-12---------55-777-888-10-10-10-7----------------------|
E|33-555-666-8--8--8--10(x17')---33-555-666-8--8--8--5(x17')----------------|

'-The barred D and A chords should be played 17 times

Riff 2 - At 2:30 - 2:56
e|--------------------10-----------------------------5----------------------|
B|--------------------10-----------------------------5----------------------|
G|44-666-777-9--9--9--11---------44-666-777-9--9--9--6----------------------|
D|55-777-888-10-10-10-12---------55-777-888-10-10-10-7----------------------|
A|55-777-888-10-10-10-12---------55-777-888-10-10-10-7----------------------|
E|33-555-666-8--8--8--10(x17)----33-555-666-8--8--8--5(x17)-----------------|

At 2:57 - 3:22 just keep repeating first riff

Riff 3 - From 3:23 - 3:39
e|33-555-666-8--8--8--10------33-555-666-8--8--8----------------------------|
B|33-555-666-8--8--8--10------33-555-666-8--8--8----------------------------|
G|44-666-777-9--9--9--11------44-666-777-9--9--9----------------------------|
D|55-777-888-10-10-10-12------55-777-888-10-10-10---------------------------|
A|55-777-888-10-10-10-12------55-777-888-10-10-10---------------------------|
E|33-555-666-8--8--8--10(x33)-33-555-666-8--8--8-(x17)----------------------|

From 3:40 - 3:53 repeat 1st riff

Riff 4 - From 3:54 - 4:09
e|33-555-777-8--8--8--10----------------------------------------------------|
B|33-555-777-8--8--8--10----------------------------------------------------|
G|44-666-888-9--9--9--11-7-7-5-7-7-7-5-7-7-7-5-7-7-7-5-7-7-7-5-7------------|
D|55-777-999-10-10-10-12----------------------------------------------------|
A|55-777-999-10-10-10-12----------------------------------------------------|
E|33-555-777-8--8--8--10----------------------------------------------------|

***************************************

| /   slide up
| \   slide down
| h   hammer-on
| p   pull-off
| ~   vibrato
| +   harmonic
| x   Mute note
| b   Bend
| pb  Pre-bend
| br  Bend release
| pbr Pre-bend release
| brb Bend release bend

***************************************
Tap to rate this tab
# A B C D E F G H I J K L M N O P Q R S T U V W X Y Z