Song name
# A B C D E F G H I J K L M N O P Q R S T U V W X Y Z

Joy Division - Love Will Tear Us Apart tab

INTRO
e-------------------------------------------|
B-------------------------------------------|
G-------------------------------------------|
D-------------------------------------------|
A-0-0-0-0-0-0-0-0-0-0-0-0-0-0-0-0-0-0-0-0-0-|
E-------------------------------------------|

e-3-3---------3-----3----|
B-5-5---------5-----5----|
G-5-5---------5-----5----| REPEAT AS HOWEVER MANY TIMES THAT PLEASE YOU
D------------------------|
A----0-0-0-0-0--0-0--0-0-|
E------------------------|
FOR THIS PART THE PART ON THE 'A' STRING CAN BE PLAYED ON ONE GUITAR/BASS THE Em CHORD 
BE PLAYED BY THE SECOND GUITAR.

MAIN RIFF
e-0-2-3-2---------|
B---------3-0-3---|
G---------------2-|
D-----------------|
A-----------------|
E-----------------|

RYTHYM
D CHORD THROUGHOUT APART FORM WHEN THE MAIN RIFF IS PLAYED
IF YOU WANT CHANGE THE NOTES AROUND TO FIT THE MAIN RIFF SO IT SOUNDS LIKE THE MAIN RIFF STRUMMED.


GUITAR 2
GUITAR 2'S PART IS BASICALLY THE MAIN RIFF AND THE BASS LINE BUT IS PLAYED AND OCTAVE LOWER.
e--------------------|
B--------------------|
G--------------------|
D--------------------|
A-7-9-10-9-7-5-2-5-0-|
E--------------------|

BASS

G-9-11-12-11-9-7-4-7-2-|
D----------------------|
A----------------------|
E----------------------|


TABBED BY RYAN DANESH 25/2/2010

IF HAVE ANY TROUBLE OR FIND ANYTHING WRONG WITH THIS TAB EMAIL ME AT RYAN.DANESH@GMAIL.COM
Tap to rate this tab
 
# A B C D E F G H I J K L M N O P Q R S T U V W X Y Z