Song name
# A B C D E F G H I J K L M N O P Q R S T U V W X Y Z

Joy Division - Transmission tab

-------------------------------------------------------------------------------
			     TRANSMISSION - Joy Division
-------------------------------------------------------------------------------
Tabbed by: Andrew Reynolds
Email: mr.andrew.reynolds@gmail.com

Tuning: standard

Note: The existing tabs for this song are incomplete and inaccurate. I used as a visual 
reference the band's video at youtube.com/watch?v=6ZwMs2fLoVE


0:24
e|--------------------------------------------|
B|--------------------------------------------|
G|--------------------------------------------|
D|--7-h9~9~-9-7-h9~9~-9-7-h9~9~-9-7-h9--------|
A|--------------------------------------------|
E|--------------------------------------------|

----------------------------------------------|
----------------------------------------------|
----------------------------------------------|
--------------------------------9-7-h9-9------|
--2-0-h2~2--2-0-h2~2~-2-0-h2-2----------------|
----------------------------------------------|

----------------------------------------------------------|
----------------------------------------------------------|
----------------------------------------------------------|
----------------------------------------------------------|
--0h2p0-2h3-5-~7-5-~7-5-~7-7-5-2h3-5-~7-5-~7-5-~7-7-5-----|
----------------------------------------------------------|

---------------------------------------------------------|
---------------------------------------------------------|
---------------------------------------------------------|
--------------------------7/9--9-9-9-9-9-9-9-9-9-9-9-9\--|
--2h3-5-~7-5-~7-5-~7-7-5---------------------------------|
---------------------------------------------------------|


0:50
Radio . . . live transmission
    (palm muted)   [could also play as octave instead of power chord]
e|--------------------------------------------------------------------|
B|--------------------------------------------------------------------|
G|--------------------------------------------------------------------|
D|--7-7-7-7-7-7-7-7-7-7-7-7-7-7-7-7-5-5-5-5-5-5-5-5-5-5-5-5-5-5-5-5---|
A|--5-5-7-5-5-7-5-5-7-5-5-7-5-5-7-5-3-3-5-3-3-5-3-3-5-3-3-5-3-3-5-3---|
E|--------------------------------------------------------------------|

  (palm muted)   (no mute)       (palm muted)
--------------------------------------------------------------------|
---------------------7----------------------------------------------|
--------------------7-----------------------------------------------|
--7-7-7-7-7-7-7-7--7--------------5-5-5-5-5-5-5-5-5-5-5-5-5-5-5-5---|
--5-5-7-5-5-7-5-5-5---------------3-3-5-3-3-5-3-3-5-3-3-5-3-3-5-3---|
--------------------------------------------------------------------|


1:03
e|--------------------------------------------|
B|--------------------------------------------|
G|--------------------------------------------|
D|--7-h9~9~-9-7-h9~9~-9-7-h9~9~-9-7-h9--------|
A|--------------------------------------------|
E|--------------------------------------------|

----------------------------------------------|
----------------------------------------------|
----------------------------------------------|
----------------------------------------------|
--2-0-h2~2--2-0-h2~2~-2-0-h2-2-2-0-h2-2\------|
----------------------------------------------|


1:17
Listen to the silence, let it ring on.
Eyes, dark grey lenses frightened of the sun.
We would have a fine time living in the night,
Left to blind destruction, waiting for our sight.
   (palm muted)   [could also play as octave instead of power chord]
e|--------------------------------------------------------------------|
B|--------------------------------------------------------------------|
G|--------------------------------------------------------------------|
D|--7-7-7-7-7-7-7-7-7-7-7-7-7-7-7-7-5-5-5-5-5-5-5-5-5-5-5-5-5-5-5-5---|
A|--5-5-7-5-5-7-5-5-7-5-5-7-5-5-7-5-3-3-5-3-3-5-3-3-5-3-3-5-3-3-5-3---|
E|--------------------------------------------------------------------|

--------------------------------------------------------------------|
--------------------------------------------------------------------|
--------------------------------------------------------------------|
--7-7-7-7-7-7-7-7-7-7-7-7-7-7-7-7-5-5-5-5-5-5-5-5-5-5-5-5-5-5-5-5---|
--5-5-7-5-5-7-5-5-7-5-5-7-5-5-7-5-3-3-5-3-3-5-3-3-5-3-3-5-3-3-5-3---|
--------------------------------------------------------------------|


1:30
e|--------------------------------------------------------------------|
B|--------------------------------------------------------------------|
G|--7-7-7-7-7-7-7-7-7-7-7-7-7-7-7-7\5-5-5-5-5-5-5-5-5-5-5-5-5-5-5-5---|
D|--7-7-7-7-7-7-7-7-7-7-7-7-7-7-7-7\5-5-5-5-5-5-5-5-5-5-5-5-5-5-5-5---|
A|--5-5-5-5-5-5-5-5-5-5-5-5-5-5-5-5\3-3-3-3-3-3-3-3-3-3-3-3-3-3-3-3---|
E|--------------------------------------------------------------------|

--------------------------------------------------------------------|
--------------------------------------------------------------------|
--7-7-7-7-7-7-7-7-7-7-7-7-7-7-7-7\5-5-5-5-5-5-5-5-5-5-5-5-5-5-5-5---|
--7-7-7-7-7-7-7-7-7-7-7-7-7-7-7-7\5-5-5-5-5-5-5-5-5-5-5-5-5-5-5-5---|
--5-5-5-5-5-5-5-5-5-5-5-5-5-5-5-5\3-3-3-3-3-3-3-3-3-3-3-3-3-3-3-3---|
--------------------------------------------------------------------|


1:43
And we would go on as though nothing was wrong.
And hide from these days we remained all alone.
Staying in the same place, just staying out the time.
Touching from a distance, further all the time.
e|------------------------------------------------------|
B|------7-7----5-5----7-7----5-5------------------------|
G|------7-7----5-5----7-7----5-5------------------------|
D|------7-7----5-5----7-7----5-5------------------------|
A|------5-5----3-3----5-5----3-3------------------------|
E|------------------------------------------------------|


1:55 guitar solo
e|---------------------------|----------------------------|
B|---------------------------|----------------------------|
G|-9^-9-9^9-9^9--9~7--7-7-7--|-9^-9-9^9-9^9--9-7--7-7-7---|
D|---------------------9-9-9-|---------------------9-9-9--|
A|---------------------------|----------------------------|
E|---------------------------|----------------------------|

----------------------------------|
----------------------------------|
-7-7-7-7-7-99^-7--7-7-7-7-7-99^-7-|
--9-9-9-9----------9-9-9-9--------|
----------------------------------|
----------------------------------|

----------------------------------|
----------------------------------|
-7-7-7-7-7-99^-7--7-7-7-99^99997--|
--9-9-9-9----------9-9------------|
----------------------------------|
----------------------------------|

2:22
Dance, dance, dance, dance, dance, to the radio. . . .
e|----------------------------------------------------|
B|----------------------------------------------------|
G|--2-0-0-2-0-0-2-0-0-2-2-2-2-2-----------------------|
D|----------------------------------------------------|
A|----------------------------------------------------|
E|----------------------------------------------------|

------------------------------------------------------|
------------------------------------------------------|
--2-0-0-2-0-2-2-2-2-2-2-2-2-2-------------------------|
------------------------------------------------------|
------------------------------------------------------|
------------------------------------------------------|

------------------------------------------------------|
------------------------------------------------------|
--2-0-0-2-0-0-2-0-0-2-2-2-2-2-------------------------|
------------------------------------------------------|
------------------------------------------------------|
------------------------------------------------------|

------------------------------------------------------|
------------------------------------------------------|
--2-0-0-2-0-0-2-0-0-2-2-2-2-2-------------------------|
------------------------------------------------------|
------------------------------------------------------|
------------------------------------------------------|

--------0-0-0-0-0---------0-0-0-0-0-0-0-0-------------|
--3-3-3-3-3-3-3-3-3-3-3-3-1-1-1-1-1-1-1-1-------------|
--2-0-0-2-0-0-2-0-0-2-0-0-0-0-0-0-0-0-0-0-------------|
------------------------------------------------------|
------------------------------------------------------|
------------------------------------------------------|

--------0-0-0-0-0---------0-0-0-0-0-0-0-0------------|
--3-3-3-3-3-3-3-3-3-3-3-3-1-1-1-1-1-1-1-1------------|
--2-0-0-2-0-0-2-0-0-2-0-0-0-0-0-0-0-0-0-0------------|
-----------------------------------------------------|
-----------------------------------------------------|
-----------------------------------------------------|

2:46
Well I could call out when the going gets tough.
The things that we've learnt are no longer enough.
No language, just sound, that's all we need know,
to synchronize love to the beat of the show.
e|---------------------------------------------------|
B|--9-9-9-9\7-7-7-5-5-5-5/7-7-7----------------------|
G|--9-9-9-9\7-7-7-5-5-5-5/7-7-7----------------------|
D|---------------------------------------------------|
A|---------------------------------------------------|
E|---------------------------------------------------|

-----------------------------------------------------|
--9-9-9-9\7-7-7-5-5-5-5/7-7-7------------------------|
--9-9-9-9\7-7-7-5-5-5-5/7-7-7------------------------|
-----------------------------------------------------|
-----------------------------------------------------|
-----------------------------------------------------|

-----------------------------------------------------|
--9-9-9-9\7-7-7-5-5-5-5/7-7-7------------------------|
--9-9-9-9\7-7-7-5-5-5-5/7-7-7------------------------|
-----------------------------------------------------|
-----------------------------------------------------|
-----------------------------------------------------|

-----------------------------------------------------|
--9-9-9-9\7-7-7-5-5-5-5/7-7-7------------------------|
--9-9-9-9\7-7-7-5-5-5-5/7-7-7------------------------|
-----------------------------------------------------|
-----------------------------------------------------|
-----------------------------------------------------|

-----------------------------------------------------|
--9-9-9-9\7-7-7-5-5-5-5/7-7-7------------------------|
--9-9-9-9\7-7-7-5-5-5-5/7-7-7------------------------|
-----------------------------------------------------|
-----------------------------------------------------|
-----------------------------------------------------|

----------------------------------------------------|
--9-9-9-9\7-7-7-5-5-5-5-5-5-5-5-5-5-----------------|
--9-9-9-9\7-7-7-5-5-5-5-5-5-5-5-5-5-----------------|
----------------------------------------------------|
----------------------------------------------------|
----------------------------------------------------|

3:05
e|--------0-0-0-0-0---------0-0-0-0-0-0-0-0-----------|
B|--3-3-3-3-3-3-3-3-3-3-3-3-1-1-1-1-1-1-1-1-----------|
G|--2-0-0-2-0-0-2-0-0-2-0-0-0-0-0-0-0-0-0-0-----------|
D|----------------------------------------------------|
A|----------------------------------------------------|
E|----------------------------------------------------|

--------0-0-0-0-0---------0-0-0-0-0-0-0-0-------------|
--3-3-3-3-3-3-3-3-3-3-3-3-1-1-1-1-1-1-1-1-------------|
--2-0-0-2-0-0-2-0-0-2-0-0-0-0-0-0-0-0-0-0-------------|
------------------------------------------------------|
------------------------------------------------------|
------------------------------------------------------|

--------0-0-0-0-0---------0-0-0-0-0-0-0-0-------------|
--3-3-3-3-3-3-3-3-3-3-3-3-1-1-1-1-1-1-1-1-------------|
--2-0-0-2-0-0-2-0-0-2-0-0-0-0-0-0-0-0-0-0-------------|
------------------------------------------------------|
------------------------------------------------------|
------------------------------------------------------|

--------0-0-0-0-0---------0-0-0-0-0-0-0-0-------------|
--3-3-3-3-3-3-3-3-3-3-3-3-1-1-1-1-1-1-1-1-------------|
--2-0-0-2-0-0-2-0-0-2-0-0-0-0-0-0-0-0-0-0-------------|
------------------------------------------------------|
------------------------------------------------------|
------------------------------------------------------|

************************************

| /   slide up
| \   slide down
| h   hammer-on
| p   pull-off
| ~   vibrato
| ^   Bend

************************************
Tap to rate this tab
 
# A B C D E F G H I J K L M N O P Q R S T U V W X Y Z