Guitaretab - guitar tabs
Song name
# A B C D E F G H I J K L M N O P Q R S T U V W X Y Z

Joy Division - Drawback tab

Intro/Chours
E---------------------------------------------|
B---------------------------------------------|
G---------------------------------------------|
D--------------------5-5-5-5-5-5-5-3----------|
A--5-5-5-5-5-5-5-3---3-3-3-3-3-3-3-1----------|
E--3-3-3-3-3-3-3-1----------------------------|

Verses
[ Tab from: http://www.guitaretab.com/j/joy-division/285599.html ]
      p.m                 p.m                  p.m               p.m
      \-------------      \-------------       \------------------------------|
E-----------------------------------------------------------------------------|
B-----------------------------------------------------------------------------|
G-----------------------------------------------------------------------------|
D----------------------------------------0-5-5-5-5-5-5-5-5-5------------------|
A0-5-5-5-5-5-5-5-5-5-0-3-3-3-3-3-3-3-3-3-0-3-3-3-3-3-3-3-3-3-05-5-5-5-5-5-5-5-|
E0-3-3-3-3-3-3-3-3-3-0-1-1-1-1-1-1-1-1-1---------------------03-3-3-3-3-3-3-3-|
                                                              \Chord is good
                                                               maybe timing
                                                               is bad

p.m palm muting
Enjoy & Rate
Related for Drawback tab
Drawback chords by Joy Division