Song name
# A B C D E F G H I J K L M N O P Q R S T U V W X Y Z

Joy Division - Shadowplay tab

                       Joy Division      Shadowplay

Looking for good tab versions of this song I found nothing that seemed quite right to 
me. I decided to write my own, so now, I present you with the best tab of this (awesome) 
song on the internet:

Bass intro:
G|----------------------------------------------|
D|----------------------------------------------|
A|-3--3-3---3-3--3-3-5-5------------------------|
E|-----------------------0--0-0--0-0--0-0-0-0-0-| x4

G|-----------------------|
D|-----------------------|
A|-3--3-3---3-3--3-3-5-5-|
E|-----------------------|

Verse:

|------------------|-----------------|-----------------|-----------------|
|------------------|-----------------|-----------------|-----------------|
|-9--------------9-|-9-----9-----9---|-----------------|-----------------|
|-9--------------9-|-9-----9-----9---|-5-5-5-5-5-5-5-5-|-5-5-5-5-5-7-7-7-|
|-7--------------7-|-7-----7-----7---|-3-3-3-3-3-3-3-3-|-3-3-3-3-3-5-5-5-|
|------------------|-----------------|-----------------|-----------------|

|------------------|-----------------|-----------------|-----------------|
|------------------|-----------------|-----------------|-----------------|
|-9--------------9-|-9---------------|-----------------|-----------------|
|-9--------------9-|-9---------------|-5-5-5-5-5-5-5-5-|-5-5-5-5-5-7-7-7-|
|-7--------------7-|-7---------------|-3-3-3-3-3-3-3-3-|-3-3-3-3-3-5-5-5-|
|------------------|-----------------|-----------------|-----------------|

|------------------|-----------------|-----------------|-----------------|
|------------------|-----------------|-----------------|-----------------|
|-9----------------|-----------------|-----------------|-----------------|
|-9----------------|-----------------|-5-5-5-5-5-5-5-5-|-5-5-5-5-5-7-7-7-|
|-7----------------|-----------------|-3-3-3-3-3-3-3-3-|-3-3-3-3-3-5-5-5-|
|------------------|-----------------|-----------------|-----------------|

|------------------|-----------------|-----------------|-----------------|
|------------------|-----------------|-----------------|-----------------|
|-9----------------|-----------------|-----------------|-----------------|
|-9----------------|-----------------|-5-5-5-5-5-5-5-5-|-5-5-5-5-5-7-7-7-|
|-7----------2-2-2-|-2-2-2-2-2-2-2-2-|-3-3-3-3-3-3-3-3-|-3-3-3-3-3-5-5-5-|
|------------0-0-0-|-0-0-0-0-0-0-0-0-|-----------------|-----------------|

|------------------|-----------------|-----------------|-----------------|
|------------------|-----------------|-----------------|-----------------|
|-9--------------9-|-9-----9-----9---|-----------------|-----------------|
|-9--------------9-|-9-----9-----9---|-5-5-5-5-5-5-5-5-|-5-5-5-5-5-7-7-7-|
|-7--------------7-|-7-----7-----7---|-3-3-3-3-3-3-3-3-|-3-3-3-3-3-5-5-5-|
|------------------|-----------------|-----------------|-----------------|

|------------------|------------------|
|------------------|------------------|
|-9----------------|------------------|
|-9----------------|------------------|
|-7----------------|------------------|
|------------------|------------------|

First solo:

|-----------------|-------------------|----------------|----------------|
|-----------------|-------------------|----------------|--10-7----------|
|-------------7---|-7^----------------|----------------|-------9^^-9-7--|
|-7/9-----------9-|----------9-----7--|-9--------------|----------------|
|-----------------|-------------------|----------------|----------------|
|-----------------|-------------------|----------------|----------------|

|-----------------|-------------------|----------------|----------------|
|-----------------|-------------------|----------------|----------------|
|-------------7---|-7^----------------|----------------|----------------|
|---9-----------9-|----------9-----7--|-9--------------|---------9----9-|
|-----------------|-------------------|----------------|----------------|
|-----------------|-------------------|----------------|----------------|

|------------------------|------------------------|---------------------|
|------------------------|------------------------|---------------------|
|------------------------|------------------------|---------------------|
|-9--8--7--9--8--7--9--8-|-9--8--7--9--8--7--9--8-|-9--7--0-------------|
|------------------------|------------------------|----------5/7--------|
|------------------------|------------------------|---------------------|

|------------------------|------------------------|------------------------|
|------------------------|------------------------|------------------------|
|------------------------|------------------------|------------------------|
|----------------9--9--9-|-9--8--7--9--8--7--9--8-|-9--8--7--9--8--7--9--8-|
|--7----7----------------|------------------------|------------------------|
|------------------------|------------------------|------------------------|

|---------------------|---------------------|
|---------------------|---------------------|
|---------------------|---------------------|
|-9--7--0-------------|---------------------|
|----------5/7--------|-7-------------------|
|---------------------|---------------------|

Repeat the bass line once:
G|----------------------------------------------|
D|----------------------------------------------|
A|-3--3-3---3-3--3-3-5-5------------------------|
E|-----------------------0--0-0--0-0--0-0-0-0-0-|

Second verse:

|-----------------|-----------------|-----------------|-----------------|
|-----------------|-----------------|-----------------|-----------------|
|-----------------|-----------------|-----------------|-----------------|
|-5-5-5-5-5-5-5-5-|-5-5-5-5-5-7-7-7-|-----------------|-----------------|
|-3-3-3-3-3-3-3-3-|-3-3-3-3-3-5-5-5-|-2-2-2-2-2-2-2-2-|-2-2-2-2-2-2-2-2-|
|-----------------|-----------------|-0-0-0-0-0-0-0-0-|-0-0-0-0-0-0-0-0-| x2

|-----------------|-----------------|-----------------|-----------------|
|-----------------|-----------------|-----------------|-----------------|
|-----------------|-----------------|-9---------------|-----------------|
|-5-5-5-5-5-5-5-5-|-5-5-5-5-5-7-7-7-|-9-----------2-2-|-----------------|
|-3-3-3-3-3-3-3-3-|-3-3-3-3-3-5-5-5-|-7-----------2-2-|-----------------|
|-----------------|-----------------|-------------0-0-|-----------------|

|-----------------|-----------------|-----------------|-----------------|
|-----------------|-----------------|-----------------|-----------------|
|-----------------|-----------------|-9---------------|-----------------|
|-5-5-5-5-5-5-5-5-|-5-5-5-5-5-7-7-7-|-9---------------|-----------------|
|-3-3-3-3-3-3-3-3-|-3-3-3-3-3-5-5-5-|-7---------------|-----------------|
|-----------------|-----------------|-----------------|-----------------|

|-----------------|-----------------|-----0-0-----0-0-|-----0-0-----0-0-|
|-3---------------|-5---------------|-----------------|-----------------|
|-5---------------|-7---------------|-9-9-----9-9-----|-9-9-----9-9-----|
|-5---------------|-7---------------|-9-9-----9-9-----|-9-9-----9-9-----|
|-3---------------|-5---------------|-7-7-----7-7-----|-7-7-----7-7-----|
|-----------------|-----------------|-----------------|-----------------|
|-----0-0-----0-0-|-----0-0-----0-0-|-----------------|-----------------|
|-3-3-----3-3-----|-5-5-----5-5-----|-----------------|-----------------|
|-5-5-----5-5-----|-7-7-----7-7-----|-9---------------|-----------------|
|-5-5-----5-5-----|-7-7-----7-7-----|-9---------------|-----------------|
|-3-3-----3-3-----|-5-5-----5-5-----|-7---------------|-----------------|
|-----------------|-----------------|-----------------|-----------------|

Repeat the bass line twice:
G|----------------------------------------------|
D|----------------------------------------------|
A|-3--3-3---3-3--3-3-5-5------------------------|
E|-----------------------0--0-0--0-0--0-0-0-0-0-| x2

Then:

|-----------------|-----------------|-----------------|-----------------|
|-----------------|-----------------|-----------------|-----------------|
|-----------------|-----------------|-9---------------|-----------------|
|-5-5-5-5-5-5-5-5-|-5-5-5-5-5-7-7-7-|-9---------------|-----------------|
|-3-3-3-3-3-3-3-3-|-3-3-3-3-3-5-5-5-|-7-----------2-2-|-2-2-2-2-2-2-2-2-|
|-----------------|-----------------|-------------0-0-|-0-0-0-0-0-0-0-0-|

|-----------------|-----------------|-----------------|-----------------|
|-----------------|-----------------|-----------------|-----------------|
|-----------------|-----------------|-9---------------|-----------------|
|-5-5-5-5-5-5-5-5-|-5-5-5-5-5-7-7-7-|-9---------------|-----------------|
|-3-3-3-3-3-3-3-3-|-3-3-3-3-3-5-5-5-|-7---------------|-----------------|
|-----------------|-----------------|-----------------|-----------------|

Second solo:
|-----------------|-------------------|----------------|----------------|
|-----------------|-------------------|----------------|----------------|
|-------------7---|-7^----------------|----------------|----------------|
|-7/9-----------9-|----------9-----7--|-9--------------|-9----9----7--9-|
|-----------------|-------------------|----------------|----------------|
|-----------------|-------------------|----------------|----------------|

|-----------------|-------------------|----------------|-----------------|
|-----------------|-------------------|----------------|-----------------|
|-------------7---|-7^----------------|----------------|-----------------|
|---9-----------9-|----------9-----7--|-9--------------|-9---9---9--9--9-|
|-----------------|-------------------|----------------|-----------------|
|-----------------|-------------------|----------------|-----------------|

|------------------------|------------------------|---------------------|
|------------------------|------------------------|---------------------|
|------------------------|------------------------|---------------------|
|-9--8--7--9--8--7--9--8-|-9--8--7--9--8--7--9--8-|-9--7--0-------------|
|------------------------|------------------------|----------5/7--------|
|------------------------|------------------------|---------------------|

|------------------------|------------------------|------------------------|
|------------------------|------------------------|------------------------|
|------------------------|------------------------|------------------------|
|----------------9--9--9-|-9--8--7--9--8--7--9--8-|-9--8--7--9--8--7--9--8-|
|--7----7----------------|------------------------|------------------------|
|------------------------|------------------------|------------------------|

|---------------------|---------------------|
|---------------------|---------------------|
|---------------------|---------------------|
|-9--7--0-------------|-------------------7-|
|----------5/7--------|-7-----7-----7--7----|
|---------------------|---------------------|

|--------------------|----------------|------------------|-----------------|
|--------------------|----------------|------------------|-----------------|
|--------------------|----------------|-7------7-----7-9-|-9^--9^--9^-9----|
|-9---9--7--9---7--9-|-7--9--9---9----|-----9-----9------|---------------9-|
|--------------------|----------------|------------------|-----------------|
|--------------------|----------------|------------------|-----------------|

|--------------------|-------------------|------------------|
|--------------------|-------------------|------------------|
|-7--7------7--7-----|-7--7-----7--7-----|-9^--9^--9^--9^---|
|--------9---------9-|--------9--------9-|------------------|
|--------------------|-------------------|------------------|
|--------------------|-------------------|------------------|

|------------------|------------------|------------------|
|------------------|------------------|------------------|
|-9^--9^--9^--9^---|-9^--9^--9^--9^---|-9^--9^--9^--9^-9-|
|------------------|------------------|------------------|
|------------------|------------------|------------------|
|------------------|------------------|------------------|

|------------------|------------------|------------------|-----------------|
|------------------|------------------|------------------|-----------------|
|-9^--9^--9^--9^---|-9^--9^--9^--9^---|-9---9---9---9----|-9---9---9---9---|
|------------------|------------------|------------------|-----------------|
|------------------|------------------|------------------|-----------------|
|------------------|------------------|------------------|-----------------|

|-----------------|-----------------|
|-----------------|-----------------|
|-9---------------|-----------------|
|-----------------|-----------------|
|-----------------|-----------------|
|-----------------|-----------------|

|-----------------|-----------------|-----------------|-----------------|
|-----------------|-----------------|-----------------|-----------------|
|-----------------|-----------------|-9---------------|-----------------|
|-5-5-5-5-5-5-5-5-|-5-5-5-5-5-7-7-7-|-9---------------|-----------------|
|-3-3-3-3-3-3-3-3-|-3-3-3-3-3-5-5-5-|-7---------------|-----------------|
|-----------------|-----------------|-----------------|-----------------|


Tabbed by 6dmind
Tap to rate this tab
# A B C D E F G H I J K L M N O P Q R S T U V W X Y Z