Song name
# A B C D E F G H I J K L M N O P Q R S T U V W X Y Z

Joy Division - Love Will Tear Us Apart tab

-------------------------------------------------------------------------------
                             Joy Division - Love will tear us apart
-------------------------------------------------------------------------------
Tabbed by: Clint W

Tuning:Standard


Intro:

e|0--------------0---------------0-----0-----0---0-----0-----0-----------0-0-|
B|0--------------0---------------0-----0-----0---0-----0-----0-------0-0-0-0-|
G|0--------------0---------------0-----0-----0---0-----0-----0-------0-0-0-0-|
D|7--------------7---------------7-----7-----7---7-----7-----7---7-7-7-7-7-7-|
A|7--7-7-7-7-7-7-7-7-7-7-7-7-7-7-7-7-7-7-7-7-7-7-7-7-7-7-7-7-7-7-7-7-7-7-7-7-|
E|5--5-5-5-5-5-5-5-5-5-5-5-5-5-5-5-5-5-5-5-5-5-5-5-5-5-5-5-5-5-5-5-5-5-5-5-5-|



Repeat this part like the whole song:

     Em                D               Bm              A
e|-0---0-0---0-0-0---2---3-2--0-0---2---2-2---2-2----0---0-0---0-0-0--|
B|-0---0-0---0-0-0---3---3-3--3-3---3---3-3---3-3----2---2-2---2-2-2--|
G|-0---0-0---0-0-0---2---2-2--2-2---4---4-4---4-4----2---2-2---2-2-2--|
D|-2---2-2---2-2-2---0---0-0--0-0---4---4-4---4-4----2---2-2---2-2-2--|
A|-2---2-2---2-2-2------------------2---2-2---2-2----0---0-0---0-0-0--|
E|-0---0-0---0-0-0----------------------------------------------------|
Tap to rate this tab
 
# A B C D E F G H I J K L M N O P Q R S T U V W X Y Z