Song name
# A B C D E F G H I J K L M N O P Q R S T U V W X Y Z

Joy Division - A Means To An End tab

Hello folks! Since there wasn't a tab available, I tried to create one for you!

It's my first tab so I hope you like it. :)


Song: A Means To An End.
Artist: Joy Division.
Album: Closer (1980).
Guitarist: Bernard Sumner.

Guitar intro (2x):

e-----------------------------------------------------------------------------|
B-----------------------------------------------------------------------------|
G-----------------7-------------7-------------7-------------------------------|
D--5--7--5--7--5----5--7--5--7----5--7--5--7----------------------------------|
A--------------------------------------------------0------2--2--2--2--2--2--2-|
E----------------------------------------------------0----0--0--0--0--0--0--0-|

A--2--2--2--2--2--2--2-|
E--0--0--0--0--0--0--0-|

Verse ( A legacy so far improved):

e-----------------------------------------------------------------------------|
B-----------------------------------------------------------------------------|
G-----------------------------------------------------------------------------|
D-----------------------------------------------------------------------------|
A--5--5--5--5--5--5--5--5--4--4--4--4--3--3--3--3--2--2--2--2--2--2--2--2--2--|
E--3--3--3--3--3--3--3--3--2--2--2--2--1--1--1--1--0--0--0--0--0--0--0--0--0--|

A--2--2--2--2--2--2--2-|
E--0--0--0--0--0--0--0-|

e-----------------------------------------------------------------------------|
B-----------------------------------------------------------------------------|
G-----------------7-------------7-------------7-------------------------------|
D--5--7--5--7--5----5--7--5--7----5--7--5--7----------------------------------|
A--------------------------------------------------0------2--2--2--2--2--2--2-|
E----------------------------------------------------0----0--0--0--0--0--0--0-|

A--2--2--2--2--2--2--2-|
E--0--0--0--0--0--0--0-|

Chorus (I always looked to you):

e-----------------------------------------------------------------------------|
B-----------------------------------------------------------------------------|
G-----------------7-------------7-------------7-------------------------------|
D--5--7--5--7--5----5--7--5--7----5--7--5--7----------------------------------|
A--------------------------------------------------0------2--2--2--2--2--2--2-|
E----------------------------------------------------0----0--0--0--0--0--0--0-|

A--2--2--2--2--2--2--2-|
E--0--0--0--0--0--0--0-|


e-----------------------------------------------------------------------------|
B-----------------------------------------------------------------------------|
G-----------------------------------------------------------------------------|
D-----------------------------------------------------------------------------|
A--5--5--5--5--5--5--5--5--4--4--4--4--3--3--3--3--2--2--2--2--2--2--2--2--2--|
E--3--3--3--3--3--3--3--3--2--2--2--2--1--1--1--1--0--0--0--0--0--0--0--0--0--|

A--2--2--2--2--2--2--2-|
E--0--0--0--0--0--0--0-|

e-----------------------------------------------------------------------------|
B-----------------------------------------------------------------------------|
G-----------------7-------------7-------------7-------------------------------|
D--5--7--5--7--5----5--7--5--7----5--7--5--7----------------------------------|
A--------------------------------------------------0------2--2--2--2--2--2--2-|
E----------------------------------------------------0----0--0--0--0--0--0--0-|

A--2--2--2--2--2--2--2-|
E--0--0--0--0--0--0--0-|

Bridge (I put my trust in you):

e-----------------------------------------------------------------------------|
B-----------------------------------------------------------------------------|
G-----------------------------------------------------------------------------|
D-----------------------14--14--14--14--14--14--14--14--14--12--12--12--12----|
A--2--2--2--2--2--2--2--14--14--14--14--14--14--14--14--14--12--12--12--12----|
E--0--0--0--0--0--0--0--12--12--12--12--12--12--12--12--12--10--10--10--10----|

G--------------------------------------13--13--13--13--13--13--13--13---------|
D--12--12--12--7--7--7--7--7--7--7--7--14--14--14--14--14--14--14--14--14--14-|
A--12--12--12--7--7--7--7--7--7--7--7--14--14--14--14--14--14--14--14--14--14-|
E--10--10--10--5--5--5--5--5--5--5--5--12--12--12--12--12--12--12--12--12--12-|

D--14--14--14--14--14--14-|
A--14--14--14--14--14--14-|
E--12--12--12--12--12--12-|

e----------------------------------------------------------------------------|
B----------------------------------------------------------------------------|
G--------------------------13--13--13--13--13--13--13--13--------------------|
D--7--7--7--7--7--7--7--7--14--14--14--14--14--14--14--14--------------------|
A--7--7--7--7--7--7--7--7--14--14--14--14--14--14--14--14--------------------|
E--5--5--5--5--5--5--5--5--12--12--12--12--12--12--12--12--------------------|

Guitar solo:

e----------------------------------------------------------------------------|
B----------------------------------------------------------------------------|
G--7--9----7--9----7----7--9----7--9--9--7--9----9----9----9----9----9-------|
D----------------------------------------------7----7----7----7----7---7-----|
A----------------------------------------------------------------------------|
E----------------------------------------------------------------------------|

G--7--9----7--7--9----7--9--9--7--9----9----9----9----9----------------------|
D------------------------------------7----7----7----7----7--9--9--9--9--7--7-|

D-7--7--5--5--5--5--7--7--7--7--9--9--9--------------------------------------


e--0--------------------------------------------------------------------------|
B--0--------------------------------------------------------------------------|
G-----------------------------------------------------------------------------|
D-----------------------------------------------------------------------------|
A------5--5--5--5--5--5--5--5--3--3--3--3--3--3--3--3--2--2--2--2--2--2--2--2-|
E------3--3--3--3--3--3--3--3--1--1--1--1--1--1--1--1--0--0--0--0--0--0--0--0-|

A---2--2--2--2--2--2--2--2--2--2-|
E---0--0--0--0--0--0--0--0--0--0-|


Verse (A house somewhere):

e-----------------------------------------------------------------------------|
B-----------------------------------------------------------------------------|
G-----------------------------------------------------------------------------|
D-----------------------------------------------------------------------------|
A--5--5--5--5--5--5--5--5--4--4--4--4--3--3--3--3--2--2--2--2--2--2--2--2--2--|
E--3--3--3--3--3--3--3--3--2--2--2--2--1--1--1--1--0--0--0--0--0--0--0--0--0--|

A--2--2--2--2--2--2--2-|
E--0--0--0--0--0--0--0-|

e-----------------------------------------------------------------------------|
B-----------------------------------------------------------------------------|
G-----------------7-------------7-------------7-------------------------------|
D--5--7--5--7--5----5--7--5--7----5--7--5--7----------------------------------|
A--------------------------------------------------0------2--2--2--2--2--2--2-|
E----------------------------------------------------0----0--0--0--0--0--0--0-|

A--2--2--2--2--2--2--2-|
E--0--0--0--0--0--0--0-|


Chorus (I put my trust in you...):

e-----------------------------------------------------------------------------|
B-----------------------------------------------------------------------------|
G-----------------7-------------7-------------7-------------------------------|
D--5--7--5--7--5----5--7--5--7----5--7--5--7----------------------------------|
A--------------------------------------------------0------2--2--2--2--2--2--2-|
E----------------------------------------------------0----0--0--0--0--0--0--0-|

A--2--2--2--2--2--2--2-|
E--0--0--0--0--0--0--0-|


e-----------------------------------------------------------------------------|
B-----------------------------------------------------------------------------|
G-----------------------------------------------------------------------------|
D-----------------------------------------------------------------------------|
A--5--5--5--5--5--5--5--5--4--4--4--4--3--3--3--3--2--2--2--2--2--2--2--2--2--|
E--3--3--3--3--3--3--3--3--2--2--2--2--1--1--1--1--0--0--0--0--0--0--0--0--0--|

A--2--2--2--2--2--2--2-|
E--0--0--0--0--0--0--0-|

e-----------------------------------------------------------------------------|
B-----------------------------------------------------------------------------|
G-----------------7-------------7-------------7-------------------------------|
D--5--7--5--7--5----5--7--5--7----5--7--5--7----------------------------------|
A--------------------------------------------------0------2--2--2--2--2--2--2-|
E----------------------------------------------------0----0--0--0--0--0--0--0-|

A--2--2--2--2--2--2--2-|
E--0--0--0--0--0--0--0-|

End:

G--8~~~~
D--8~~~~
A--6~~~~
Tap to rate this tab
# A B C D E F G H I J K L M N O P Q R S T U V W X Y Z