Guitaretab - guitar tabs
Song name
# A B C D E F G H I J K L M N O P Q R S T U V W X Y Z

Joy Division - Shes Lost Control tab

         ||||||||
      ==Great song==
         ||||||||

intro: 

1ª guitar
|-----------------------------------------------------------------|
|-----------------------------------------------------------------|
|---7--7-7-7-7-7-7-5-7-5-3--3-3-3-5--5-5-5-5-5-5-3-5-3------------|
|------------------------------------------------------5--5-5-5---| x5
|-----------------------------------------------------------------|
|-----------------------------------------------------------------|

|-----------------------------------------------------------------|
|-----------------------------------------------------------------|
|---7--7-7-7-7-7-7-3-3-3-5--5-5-7--7-7-7-7-7-7x-0-0-0-0-----------|
|-----------------------------------------------------------------|
|-----------------------------------------------------------------|
|-----------------------------------------------------------------|


2ªguitar        (repeat until the end!!)
   
|-----------------------------------------------------------------------------|\
|-----------------------------------------------------------------------------||
|------------3-3--5-5--7-7-7-7-7-7-7-7--------------3-3--5-5--2-2-2-2-2-2-2-2-||  
|--5-5--7-7--3-3--5-5--7-7-7-7-7-7-7-7----5-5--7-7--3-3--5-5--2-2-2-2-2-2-2-2-||
|--5-5--7-7--1-1--3-5--5-5-5-5-5-5-5-5----5-5--7-7--1-1--3-3--0-0-0-0-0-0-0-0-||
|--3-3--5-5-------------------------------3-3--5-5----------------------------|/


[ Tab from: http://www.guitaretab.com/j/joy-division/40184.html ]
1ªguitar
|-----------------------------------------------------------------|
|-----------------------------------------------------------------|
|---7--7-7-7-7-7-7-5-7-5-3--3-3-3-5--5-5-5-5-5-5-3-5-3------------|
|------------------------------------------------------5--5-5-5---| x5
|-----------------------------------------------------------------|
|-----------------------------------------------------------------|

|-----------------------------------------------------------------|
|-----------------------------------------------------------------|
|---7--7-7-7-7-7-7-3-3-3-5--5-5-7--7-7-7-7-7-7x-0-0-0-0-----------|
|-----------------------------------------------------------------|
|-----------------------------------------------------------------|
|-----------------------------------------------------------------|



|-----------------------------------------------------------------------------|
|-----------------------------------------------------------------------------|
|------------3-3--5-5--7-7-7-7-7-7-7-7--------------3-3--5-5--2-2-2-2-2-2-2-2-| 
|--5-5--7-7--3-3--5-5--7-7-7-7-7-7-7-7----5-5--7-7--3-3--5-5--2-2-2-2-2-2-2-2-|
|--5-5--7-7--1-1--3-5--5-5-5-5-5-5-5-5----5-5--7-7--1-1--3-3--0-0-0-0-0-0-0-0-|
|--3-3--5-5-------------------------------3-3--5-5----------------------------|


 end...
|--------------------------------------|
|--------------------------------------|
|---5--7-7-7--5--7-7-7-----------------|
|---5--7-7-7--5--7-7-7-----------------|
|---3--5-5-5--3--5-5-5-----------------|
|--------------------------------------|


doubts? (dudas):
tab by: alex
fenomenovines@hotmail.com
 / \
d-_-b
|:o:|
 |º|
 
Related for Shes Lost Control tab
Advertisement will be closed in 10 seconds