Song name
# A B C D E F G H I J K L M N O P Q R S T U V W X Y Z

Joy Division - Interzone tab

-------------------------------------------------------------------------------
			     Interzone - Joy Division
-------------------------------------------------------------------------------
Tabbed by: Gallagher2006

Tuning: Standard

Intro/Verse riff...

e|---------------------------------------------------------------------------|
B|---------------------------------------------------------------------------|
G|-5/-7--5---2-2-2-2-2-2-2-2-2-2-2-------------------------------------------|
D|-5/-7--5---2-2-2-2-2-2-2-2-2-2-2-------------------------------------------|
A|-3/-5--3---0-0-0-0-0-0-0-0-0-0-0-------------------------------------------|
E|---------------------------------------------------------------------------|

Break before verse...

e|---------------------------------------------------------------------------|
B|---------------------------------------------------------------------------|
G|--7b9r7--5----5------------7b9r7--5-----5----------------------------------|
D|------------7----7-----7-------------7----7----7---------------------------|
A|--------------------0----0------------------0----0-------------------------|
E|---------------------------------------------------------------------------|


Verse for a bit then the break comes again


e|---------------------------------------------------------------------------|
B|---------------------------------------------------------------------------|
G|-5/-7--5---2-2-2-2-2-2-2-2-2-2-2-------------------------------------------|
D|-5/-7--5---2-2-2-2-2-2-2-2-2-2-2-------------------------------------------|
A|-3/-5--3---0-0-0-0-0-0-0-0-0-0-0-------------------------------------------|
E|---------------------------------------------------------------------------|

e|---------------------------------------------------------------------------|
B|---------------------------------------------------------------------------|
G|--7b9r7--5----5------------7b9r7--5-----5----------------------------------|
D|------------7----7-----7-------------7----7----7---------------------------|
A|--------------------0----0------------------0----0-------------------------|
E|---------------------------------------------------------------------------|

e|---------------------------------------------------------------------------|
B|---------------------------------------------------------------------------|
G|-5-7b9--5--------------5-7-5-----------------------------------------------|
D|-----------7-7-7-7-7-7-------7-7-7-7-7-7-etc-------------------------------|
A|---------------------------------------------------------------------------|
E|---------------------------------------------------------------------------|

Bridge section...

e|---------------------------------------------------------------------------|
B|---------------------------------------------------------------------------|
G|---------------------------------------------------------------------------|
D|-2-2-2-2-2-2-2-2-2-2-2-2---Etc---------------------------------------------|
A|-0-0-0-0-0-0-0-0-0-0-0-0---------------------------------------------------|
E|---------------------------------------------------------------------------|
Pm........................

Pretty much all there is to it
Tap to rate this tab
 
# A B C D E F G H I J K L M N O P Q R S T U V W X Y Z