Song name
# A B C D E F G H I J K L M N O P Q R S T U V W X Y Z

Joy Division - Drawback The tab

1st verse

E-----------------------------------------/
B-----------------------------------------/
G----------------------5-5-5-5-5-5-5------/
D--5-5-5-5-5-5-5-5-5---5-5-5-5-5-5-5-0-5--/
A--5-5-5-5-5-5-5-5-5---3-3-3-3-3-3-3-0-5--/
E--3-3-3-3-3-3-3-3-3-----------------0-3--/

2nd verse
When he starts to sing

E-----------------------------------------------------------/
B-----------------------------------------------------------/
G------------------------------------------5-5-5-5-5-5-5-5-5/
D--5-5-5-5-5-5-5-5-5---3-3-3-3-3-3-3-3-3---5-5-5-5-5-5-5-5-5/
A--5-5-5-5-5-5-5-5-5---3-3-3-3-3-3-3-3-3---3-3-3-3-3-3-3-3-3/
E--3-3-3-3-3-3-3-3-3---1-1-1-1-1-1-1-1-1--------------------/

Basicly the whole song goes like this but if you want to you could add the bassline when 
from G to F.

It looks like this

G--------------5555555/
D-55555555-----3333333/
A-55555555-----3333333/
E-33333333-023--------/
Tap to rate this tab
 
# A B C D E F G H I J K L M N O P Q R S T U V W X Y Z