Song name
# A B C D E F G H I J K L M N O P Q R S T U V W X Y Z

Joy Division - Atrocity Exhibition tab

-------------------------------------------------------------------------------
		   Atrocity Exhibition - Joy Division
-------------------------------------------------------------------------------
Tabbed by: Gallagher2006

Tuning: Standard

Okay, this is going to be difficult...

The aim of the production on this song was to create something hectic...
As such, the guitar can be barely heard. Have a look at either the 
“Heart and Soul” Boxset and the live version on disc 3, or the “Unknown Pleasures”
Deluxe edition to hear what is played behind all the chaos.

Intro/verse riff
    Let ring for a few bars...
e|--0----------0-----|-------------------------------------------------------|
B|--0----------0-----|-------------------------------------------------------|
G|--0----------1-----|-------------------------------------------------------|
D|--2------2-2-2-----|--2---2-2--2-------------------------------------------|
A|--2------2-2-2-----|--2---2-2--2-------------------------------------------|
E|--0------0-0-0-----|--0---0-0--0/3-2--2-2-3-3-2-2--------------------------|

Play that last part through the verses and chorus.

After the chorus there is a little power chord riff - 

e|---------------------------------------------------------------------------|
B|----7--7--7-/--10101010-7--7-7-7-/--12-12-12-12--x-2-----------------------|
G|----7--7--7-/--10101010-7--7-7-7-/--12-12-12-12----------------------------|
D|----7--7--7-/--10101010-7--7-7-7-/--12-12-12-12----------------------------|
A|----5--5--5-/--8-8-8-8--5--5-5-5-/--10-10-10-10----------------------------|
E|---------------------------------------------------------------------------|

e|---------------------------------------------------------------------------|
B|----14-14-14-/--12--12--12--/--10-10-10-10-/-12--12--12--------------------|
G|----14-14-14-/--12--12--12--/--10-10-10-10-/-12--12--12--------------------|
D|----14-14-14-/--12--12--12--/--10-10-10-10-/-12--12--12----x2--------------|
A|----12-12-12-/--10--10--10--/--8--8--8--8--/-10--10--10--------------------|
E|---------------------------------------------------------------------------|

A part of the bridge section...
PM . . . . . . . . . . . . . 
e|---------------------------------------------------------------------------|
B|---------------------------------------------------------------------------|
G|---------------------------------------------------------------------------|
D|-------------5----------------x8-------------------------------------------|
A|-7-7-7-7-7-7----9-9-9-9-9-9------------------------------------------------|
E|---------------------------------------------------------------------------|

To be honest, I don’t think I can tab the rest of the song.
It’s something to do with a whammy bar and a slide...that’s all I know

=]
Tap to rate this tab
# A B C D E F G H I J K L M N O P Q R S T U V W X Y Z