Guitaretab - guitar tabs
Song name
# A B C D E F G H I J K L M N O P Q R S T U V W X Y Z

Joy Division - New Dawn Fades tab

-------------------------------------------------------------------------------
			     New Dawn Fades - Joy Division
-------------------------------------------------------------------------------
Tabbed by: Gallagher2006

Tuning: Standard

A few bars of drum n bass then...

Intro

e|---------------------------------------------------------------------------|
B|---------------------------------------------------------------------------|
G|---------------------------------------------------------------------------|
D|---------------------------------------------------------------------------|
A|---------------------------------------------------------------------------|
E|-0-----2---3---5-----7--5---3-5-----7--5---3--2---3--0---------------------|

X2

e|---------------------------------------------------------------------------|
B|---------------------------------------------------------------------------|
G|---------------------------------------------------------------------------|
D|---------------------------------------------------------------------------|
A|---------------------------------------------------------------------------|
E|-0--0-2v---0--0-2--0-2-----------------------------------------------------|

X4
[ Tab from: http://www.guitaretab.com/j/joy-division/9502.html ]
e|---------------------------------------------------------------------------|
B|---------------------------------------------------------------------------|
G|---------------------------------------------------------------------------|
D|---------------------------------------------------------------------------|
A|-7--7-9v---7--7-9--7-9-----------------------------------------------------|
E|---------------------------------------------------------------------------|

X 4

The next clean guitar part is just randomly picking at the chords that 
correspond to the bass line. These chords to be exact ;)

    E   D   C   A 

e|------2---0---0-----|
B|--9---3---1---2-----|
G|--9---2---0---2-----|
D|--9---0---2---2-----|
A|--7-------3---0-----|
E|--------------------|

Then the chords are played just once after the interlude (Which is just
The randomly picked chords) with distortion and let ring

e|-----------------------------------|
B|-9-----7------5--------------------|
G|-9-----7------5-----6--------------|
D|-9-----7------5-----7--------------|
A|-7-----5------3-----7--------------|
E|-0------------------5--------------|

Then the guitar solo...this is the ďjistĒ of it actually...itís just 
These two parts played differently a few times...then the outro

e|----------------|------------------|
B|----------------|------------------|
G|-9--11---9------|-9--11--9--12v----|
D|------------9v--|------------------|
A|----------------|------------------|
E|----------------|------------------|

Outro:

e|---------------------------------------------------------------------------|
B|---------------------------------------------------------------------------|
G|--9----11--12---14---16--14---12--14----16--14--12--11--12--9--------------|
D|---------------------------------------------------------------------------|
A|---------------------------------------------------------------------------|
E|---------------------------------------------------------------------------|

X 2

And thatís the end of the most emotionally charged Joy Division song...ever!
Related for New Dawn Fades tab