Guitaretab - guitar tabs
Song name
# A B C D E F G H I J K L M N O P Q R S T U V W X Y Z

Joy Division - Transmission tab

Joy Division - Transmission
Tabbed by Eren OGRUL
Listen for the correct timing!

Intro
e|-----------------------------------------------------------------|
B|-----------------------------------------------------------------|
G|-----------------------------------------------------------------|
D|-7-9-9--9--7-9-9--9--7-9-9-------------------------------9-7-9-9-|
A|---------------------------2--0-2-2--2--0-2-2--2--0-2-2----------|
E|-----------------------------------------------------------------|

------------------------------------------------------------------------|
------------------------------------------------------------------------|
------------------------------------------------------------------------|
-------------------------------------------------------------------7-9--|
-2-3-5-7-5-7-5-7-7-5-5--2-3-5-7-5-7-5-7-7-5-5-2-3-5-7-5-7-5-7--7-5------|
------------------------------------------------------------------------|
[ Tab from: http://www.guitaretab.com/j/joy-division/9504.html ]
Verse
e|------|
B|------|
G|-7--5-|
D|-7--5-|
A|-5--3-|
E|------|

Solo
e|-------------------------------------------------------|
B|-------------------------------------------------------|
G|-9^-9-9^9-9^9--9-7--7-7-7---9^-9-9^9-9^9--9-7--7-7-7---|
D|---------------------9-9-9----------------------9-9-9--|
A|-------------------------------------------------------|
E|-------------------------------------------------------|

--------------------------------------------------------------------|
--------------------------------------------------------------------|
-7-7-7-7-7-9^-7--7-7-7-7-7-9^-7--7-7-7-7-7-9^-7--7-7-7-7-7-9-9-9-9--|
--9-9-9-9---------9-9-9-9---------9-9-9-9---------9-9-9-9-----------|
--------------------------------------------------------------------|
--------------------------------------------------------------------|

Outro
e|----------|
B|-3-3-3-3--|
G|-2-2-2-2--|
D|-0-0-2-2--|
A|----------|
E|----------|

Another amazing song from Joy Division!
Related for Transmission tab
Transmission chords by Joy Division