Song name
# A B C D E F G H I J K L M N O P Q R S T U V W X Y Z

Joy Katzen-guthrie - Song Of Joy tab

THANKS THIS SONG IS AWSOME!! I HOPE YOU LIKE IT!!!!


FIRST VERSE

E-0--1-3-3-1-0------------0-0---------------------------------------------|
B----------------3-1-1-3-------3------------------------------------------|
G-------------------------------------------------------------------------|
D-------------------------------------------------------------------------|
A-------------------------------------------------------------------------|
E-------------------------------------------------------------------------|

second verse

E-0--1-3-3-1-0------------0------------------------------------------------|
B----------------3-1-1-3-----3---1-----------------------------------------|
G--------------------------------------------------------------------------|
D--------------------------------------------------------------------------|
A--------------------------------------------------------------------------|
E--------------------------------------------------------------------------|

bridge


E----0------0-1-0---------0-1-0----------------------------------------------|
B-3----1--3-------1----3-------3-1-3-----------------------------------------|
G-----------------------------------0----------------------------------------|
D----------------------------------------------------------------------------|
A----------------------------------------------------------------------------|
E----------------------------------------------------------------------------|

FINAL VERSE

E-0--1-3-3-1-0------------0-0---------------------------------------------|
B----------------3-1-1-3-------3------------------------------------------|
G-------------------------------------------------------------------------|
D-------------------------------------------------------------------------|
A-------------------------------------------------------------------------|
E-------------------------------------------------------------------------|
Tap to rate this tab
 
# A B C D E F G H I J K L M N O P Q R S T U V W X Y Z