Joy Wants Eternity - Above The Clouds Lies Eternal Sun tab

-------------------------------------------------------------------------------
	    ABOVE THE CLOUDS LIES ETERNAL SUN - Joy Wants Eternity
-------------------------------------------------------------------------------
Tabbed by: Wezpa (J.Eriksson)
Tabbed: Lead Git
Tuning: Standard
Bands Website: http://www.joywantseternity.com/

Note: I think this is accurate, It is the lead melody of the song. 
Please don't forget to rate and/or comment!
Enjoy!

00:11
e|----10------10--15-14------------------------------------------------------|
B|12------12-----------------------------------------------------------------|
G|---------------------------------------------------------------------------|
D|---------------------------------------------------------------------------|
A|---------------------------------------------------------------------------|
E|---------------------------------------------------------------------------|

00:19 Played 3 times:
e|10------------------------------------15-------14--------------15-14-------|
B|---12------------------------12-15-12----12-15------12-15-12-15------------|
G|---------14-14-11------11-14---------------------14------------------------|
D|---------------------------------------------------------------------------|
A|---------------------------------------------------------------------------|
E|---------------------------------------------------------------------------|

01:29 
e|---------------------------------------------------------------------------|
B|---------------------------------------------------------------------------|
G|---------------------11------12-12-11--------------------------------------|
D|12--11-12--------12------14------------------------------------------------|
A|----------12---------------------------------------------------------------|
E|---------------------------------------------------------------------------|

02:58 Played 2 times
e|---------------------------------------------------------------------------|
B|---------------------------------------------------------------------------|
G|---11--------------------------11------------------------------------------|
D|------11-12-14-12-11-12-----------11-12-14-11------------------------------|
A|12--------------------------12------------------12-h14-14------------------|
E|---------------------------------------------------------------------------|


Then: (03:30)
e|---------------------------------------------------------------------------|
B|---------------------------------------------------------------------------|
G|---11--------------------------11------------------------------------------|
D|------11-12-14-12-11-12-----------11-12-14-11-11---------------------------|
A|12--------------------------14---------------------------------------------|
E|---------------------------------------------------------------------------|

************************************

| /   slide up
| \   slide down
| h   hammer-on
| p   pull-off
| ~   vibrato
| +   harmonic
| x   Mute note
| b   Bend
| pb  Pre-bend
| br  Bend release
| pbr Pre-bend release
| brb Bend release bend

************************************
Tap to rate this tab
 
# A B C D E F G H I J K L M N O P Q R S T U V W X Y Z