Song name
# A B C D E F G H I J K L M N O P Q R S T U V W X Y Z

Joyce Manor - Constant Headache tab

-------------------------------------------------------------------------------
			     CONSTANT HEADACHE - Joyce Manor
-------------------------------------------------------------------------------
Tabbed by:Punkguy66-14
Email:message me here

Tuning:standard


e|-------------------------------------------------------------------------|
B|--------------------------------------7-7-5-4----------------------------|
G|----1-1----8-6---1-1---2-4-2-1--4-4-1----------6-6-8-9-8-6-8-------------|
D|--2------2-----1-----1---------------------------------------------------|
A|-------------------------------------------------------------------------|
E|-------------------------------------------------------------------------|
*2nd guitar
e|-------------------------------------------------------------------------|
B|---4-------this play htrough the whole beginning part--------------------|
G|---4----------i'm probably wrong and the solo is a little-off------------|
D|---2---------------------------------------------------------------------|
A|---2---------------------------------------------------------------------|
E|-------------------------------------------------------------------------|

   I could hear you coming so I hid by the couch.
   You were talking so loudly,  I don't know what about.
   You were drunker than high school, self-conscious and sweet.
   I never ever felt so cool   disguised in your sheets.
e|-------------------------------------------------------------------------|
B|-------------------------------------------------------------------------|
G|---------------------------4--4--4--4--4--4--4--4------------------------|
D|--2--2--2--2--2--2--2--2---4--4--4--4--4--4--4--4------------------------|
A|--2--2--2--2--2--2--2--2---2--2--2--2--2--2--2--2------------------------|
E|--0--0--0--0--0--0--0--0-------------------------------------------------|

chous
But I'm a constant headache, a tooth out of line.
They try to make you regret it, you tell them, no not this time.
e|-------------------------------------------------------------------------|
B|-------------------------------------------------------------------------|
G|----------------------------4--4--4--4--4--4--4--4-----------------------|
D|--2--2--2--2--2--2--2--2----4--4--4--4--4--4--4--4-----------------------|
A|--2--2--2--2--2--2--2--2----2--2--2--2--2--2--2--2-----------------------|
E|--0--0--0--0--0--0--0--0-------------------------------------------------|

It's just a constant headache, a dead pet device.
e|-------------------------------------------------------------------------|
B|-------------------------------------------------------------------------|
G|--------------------------------4--4--4--4--4--4--4--4-------------------|
D|--6--6--6--6--6--6--6--6--------4--4--4--4--4--4--4--4-------------------|
A|--6--6--6--6--6--6--6--6--------2--2--2--2--2--2--2--2-------------------|
E|--4--4--4--4--4--4--4--4-------------------------------------------------|


You hang me up, unfinished with  the better part of me no longer mine.
e|-------------------------------------------------------------------------|
B|-------------------------------------------------------------------------|
G|-------------------------------------------------------------------------|
D|--6--6--6--6--6--6--6--6--------4--4--4--4--4--4--4--4-------------------|
A|--6--6--6--6--6--6--6--6--------4--4--4--4--4--4--4--4-------------------|
E|--4--4--4--4--4--4--4--4--------2--2--2--2--2--2--2--2-------------------|


e|-------------------------------------------------------------------------|
B|--------------------------------------7-7-5-4----------------------------|
G|----1-1----8-6---1-1---2-4-2-1--4-4-1----------6-6-8-9-8-6-8-------------|
D|--2------2-----1-----1---------------------------------------------------|
A|-------------------------------------------------------------------------|
E|-------------------------------------------------------------------------|

*2nd guitar pal muted

e|-------------------------------------------------------------------------|
B|-------------------------------------------------------------------------|
G|----------------------------4--4--4--4--4--4--4--4-----------------------|
D|--2--2--2--2--2--2--2--2----4--4--4--4--4--4--4--4-----------------------|
A|--2--2--2--2--2--2--2--2----2--2--2--2--2--2--2--2-----------------------|
E|--0--0--0--0--0--0--0--0-------------------------------------------------|

e|-------------------------------------------------------------------------|
B|-------------------------------------------------------------------------|
G|-------------------------------------------------------------------------|
D|--6--6--6--6--6--6--6--6--------4--4--4--4--4--4--4--4-------------------|
A|--6--6--6--6--6--6--6--6--------4--4--4--4--4--4--4--4-------------------|
E|--4--4--4--4--4--4--4--4--------2--2--2--2--2--2--2--2-------------------|


And then you finally found me, pretending to sleep.
You said such nice things about me, I felt guilty and cheap.
You took two steps to the kitchen, and just stared at the sink.
I couldn't hold back a smile, I still wish I could have seen you 
Having sex in the morning, your love was foreign to me.
It made me think maybe human is not such a bad thing to be.
But I just laid there in protest, entirely fucked.
It's such a stubborn reminder one perfect night's not enough. 
e|-------------------------------------------------------------------------|
B|-------------------------------------------------------------------------|
G|----------------------------4--4--4--4--4--4--4--4-----------------------|
D|--2--2--2--2--2--2--2--2----4--4--4--4--4--4--4--4-----------------------|
A|--2--2--2--2--2--2--2--2----2--2--2--2--2--2--2--2-----------------------|
E|--0--0--0--0--0--0--0--0-------------------------------------------------|

chous
But I'm a constant headache, a tooth out of line.
They try to make you regret it, you tell them, no not this time.
e|-------------------------------------------------------------------------|
B|-------------------------------------------------------------------------|
G|----------------------------4--4--4--4--4--4--4--4-----------------------|
D|--2--2--2--2--2--2--2--2----4--4--4--4--4--4--4--4-----------------------|
A|--2--2--2--2--2--2--2--2----2--2--2--2--2--2--2--2-----------------------|
E|--0--0--0--0--0--0--0--0-------------------------------------------------|

It's just a constant headache, a dead pet device.
e|-------------------------------------------------------------------------|
B|-------------------------------------------------------------------------|
G|--------------------------------4--4--4--4--4--4--4--4-------------------|
D|--6--6--6--6--6--6--6--6--------4--4--4--4--4--4--4--4-------------------|
A|--6--6--6--6--6--6--6--6--------2--2--2--2--2--2--2--2-------------------|
E|--4--4--4--4--4--4--4--4-------------------------------------------------|


You hang me up, unfinished with  the better part of me no longer mine.
e|-------------------------------------------------------------------------|
B|-------------------------------------------------------------------------|
G|-------------------------------------------------------------------------|
D|--6--6--6--6--6--6--6--6--------4--4--4--4--4--4--4--4-------------------|
A|--6--6--6--6--6--6--6--6--------4--4--4--4--4--4--4--4-------------------|
E|--4--4--4--4--4--4--4--4--------2--2--2--2--2--2--2--2-------------------|


ending
e|-------------------------------------------------------------------------|
B|-------------------------------------------------------------------------|
G|-9-8-9-8-9-8-9-8-9-9-8--------------------8-8-9-8-6-4--------------------|
D|----------------------------6-4-6-4-6-4-6--------------------------------|
A|-------------------------------------------------------------------------|
E|-------------------------------------------------------------------------|


e|-------------------------------------------------------------------------|
B|-------------------------------------------------------------------------|
G|---------66--4-4-4-4------------------88--9-9-9-9------------------------|
D|-2222222-66--4-4-4-4---------66666666-88--9-9-9-9------------------------|
A|-2222222-44--2-2-2-2---------66666666-66--7-7-7-7------------------------|
E|-0000000---------------------44444444------------------------------------|

joycemanor.blogspot.com this band in on 6131 records
Tap to rate this tab
 
# A B C D E F G H I J K L M N O P Q R S T U V W X Y Z