Song name
# A B C D E F G H I J K L M N O P Q R S T U V W X Y Z

Joyce Manor - Derailed tab

Standard Tuning
*=Palm mute


Guitar 1
[0:00]-[0:24]
|------5-5------5-5------5-5------5-5--|
|------5-5------5-5------5-5------5-5--|
|--6-6------6-6------6-6------6-6------|
|--7-7------7-7------7-7------7-7------|
|--------------------------------------|
|--------------------------------------|
|  * *      * *      * *      * *
|
|------9--9-------9--9-------9--9--------9--9p7--|
|------10-10------10-10------10-10------10-10----|
|--7-7--------7-7--------7-7--------7-7----------|
|--7-7--------7-7--------7-7--------7-7----------|
|------------------------------------------------|
|------------------------------------------------|
|  * *        * *        * *        * *
|
|x6

Guitar 1 (Faintly in the right speaker)
[0:25]-[0:39]
|--99999999-------------10-10-1010101010-9--9--9-9-9-9-9--|
|----------101010109999-10-10-1010101010-10-10-1010101010-|
|---------------------------------------------------------|
|---------------------------------------------------------|
|---------------------------------------------------------|
|---------------------------------------------------------|
|
|----------------------------10-10-1010101010-9--9--9-9-9-9-9--|
|--101010101010101099997777--10-10-1010101010-10-10-1010101010-|
|--------------------------------------------------------------|
|--------------------------------------------------------------|
|--------------------------------------------------------------|
|--------------------------------------------------------------|


Guitar 2
[0:25]-[0:45]
|-------------------------------------------|
|-------------------------------------------|
|----------7-----------7-----------2~--2~---|
|----7-----7-----7-----7-----4-----2~--2~---|
|----7-----5x16--7-----5x16--4-----0~--0~---|
|----5x16--------5x16--------2x16-----------|


Guitar 1
[0:46]-[0:51]
|-------------------------------|
|-------------------------------|
|--777-666-44-2~-----777-666-9--|
|-------------------------------|
|-------------------------------|
|-------------------------------|


Guitar 2
[0:45]-[0:51]
|---------------|
|---------------|
|--7~-----7~----|
|--7~-----7~----|
|--5~-----5~----|
|---------------|


Guitar 1
[0:51]-[1:15]
|------5-5------5-5------5-5------5-5--|
|------5-5------5-5------5-5------5-5--|
|--6-6------6-6------6-6------6-6------|
|--7-7------7-7------7-7------7-7------|
|--------------------------------------|
|--------------------------------------|
|  * *      * *      * *      * *
|
|------9--9-------9--9-------9--9--------9--9p7--|
|------10-10------10-10------10-10------10-10----|
|--7-7--------7-7--------7-7--------7-7----------|
|--7-7--------7-7--------7-7--------7-7----------|
|------------------------------------------------|
|------------------------------------------------|
   * *        * *        * *        * *

Guitar 2
[0:51]-[1:03]
|------------------------------------------------|
|---------------------5--------------------------|
|--6p4-6p4\2--6p4-6p4----6p4-6p4\2--2/4-4-4\2-2--|
|------------------------------------------------|
|------------------------------------------------|
|------------------------------------------------|
|
|------------------------------------------------|
|---------------------5--------------------------|
|--6p4-6p4\2--6p4-6p4----6p4-6p4\2-2~------------|
|------------------------------------------------|
|------------------------------------------------|
|------------------------------------------------|

Guitar 2
[1:03]-[1:15]
|----------------------|
|----------------------|
|----------------------|
|------------5----4----|
|--5----4----3x8--2x8--|
|--3x8--2x8------------|

Guitar 1
[1:16]-[1:28]
|--99999999-------------10-10-1010101010-9--9--9-9-9-9-9--|
|----------101010109999-10-10-1010101010-10-10-1010101010-|
|---------------------------------------------------------|
|---------------------------------------------------------|
|---------------------------------------------------------|
|---------------------------------------------------------|
|
|----------------------------10-10-1010101010-9--9--9-9-9-9-9--|
|--101010101010101099997777--10-10-1010101010-10-10-1010101010-|
|--------------------------------------------------------------|
|--------------------------------------------------------------|
|--------------------------------------------------------------|
|--------------------------------------------------------------|


Guitar 2
[1:16]-[1:34]
|-------------------------------------------|
|-------------------------------------------|
|----------7-----------7-----------2~--2~---|
|----7-----7-----7-----7-----4-----2~--2~---|
|----7-----5x16--7-----5x16--4-----0~--0~---|
|----5x16--------5x16--------2x16-----------|


Guitar 1
[1:34]-[1:41]
|-------------------------------|
|-------------------------------|
|--777-666-44-2~-----777-666-9--|
|-------------------------------|
|-------------------------------|
|-------------------------------|

Guitar 2
[1:34]-[1:41]
|-----------------|
|---------6~------|
|--7~-----7~--99--|
|--7~-----7~--99--|
|--5~-----5~--77--|
|-----------------|
Tap to rate this tab
 
# A B C D E F G H I J K L M N O P Q R S T U V W X Y Z